  0
SECTION
  2
HEADER
  9
$ACADVER
  1
AC1014
  9
$ACADMAINTVER
 70
     9
  9
$DWGCODEPAGE
  3
ANSI_932
  9
$INSBASE
 10
0.0
 20
0.0
 30
0.0
  9
$EXTMIN
 10
-246.1101393204574
 20
-108.2000000530271
 30
0.0
  9
$EXTMAX
 10
246.1101393204574
 20
108.400000053027
 30
0.0
  9
$LIMMIN
 10
-148.5
 20
-105.0
  9
$LIMMAX
 10
148.5
 20
105.0
  9
$ORTHOMODE
 70
     0
  9
$REGENMODE
 70
     1
  9
$FILLMODE
 70
     1
  9
$QTEXTMODE
 70
     0
  9
$MIRRTEXT
 70
     1
  9
$DRAGMODE
 70
     2
  9
$LTSCALE
 40
1.0
  9
$OSMODE
 70
    37
  9
$ATTMODE
 70
     1
  9
$TEXTSIZE
 40
0.2
  9
$TRACEWID
 40
0.05
  9
$TEXTSTYLE
  7
STANDARD
  9
$CLAYER
  8
0
  9
$CELTYPE
  6
BYLAYER
  9
$CECOLOR
 62
   256
  9
$CELTSCALE
 40
1.0
  9
$DELOBJ
 70
     1
  9
$DISPSILH
 70
     0
  9
$DIMSCALE
 40
1.0
  9
$DIMASZ
 40
2.5
  9
$DIMEXO
 40
0.0625
  9
$DIMDLI
 40
0.38
  9
$DIMRND
 40
0.0
  9
$DIMDLE
 40
0.0
  9
$DIMEXE
 40
0.18
  9
$DIMTP
 40
0.0
  9
$DIMTM
 40
0.0
  9
$DIMTXT
 40
0.18
  9
$DIMCEN
 40
0.09
  9
$DIMTSZ
 40
0.0
  9
$DIMTOL
 70
     0
  9
$DIMLIM
 70
     0
  9
$DIMTIH
 70
     1
  9
$DIMTOH
 70
     1
  9
$DIMSE1
 70
     0
  9
$DIMSE2
 70
     0
  9
$DIMTAD
 70
     3
  9
$DIMZIN
 70
     0
  9
$DIMBLK
  1

  9
$DIMASO
 70
     1
  9
$DIMSHO
 70
     1
  9
$DIMPOST
  1

  9
$DIMAPOST
  1

  9
$DIMALT
 70
     0
  9
$DIMALTD
 70
     2
  9
$DIMALTF
 40
25.4
  9
$DIMLFAC
 40
1.0
  9
$DIMTOFL
 70
     0
  9
$DIMTVP
 40
0.0
  9
$DIMTIX
 70
     0
  9
$DIMSOXD
 70
     0
  9
$DIMSAH
 70
     0
  9
$DIMBLK1
  1

  9
$DIMBLK2
  1

  9
$DIMSTYLE
  2
STANDARD
  9
$DIMCLRD
 70
     0
  9
$DIMCLRE
 70
     0
  9
$DIMCLRT
 70
     0
  9
$DIMTFAC
 40
1.0
  9
$DIMGAP
 40
0.09
  9
$DIMJUST
 70
     0
  9
$DIMSD1
 70
     0
  9
$DIMSD2
 70
     0
  9
$DIMTOLJ
 70
     1
  9
$DIMTZIN
 70
     0
  9
$DIMALTZ
 70
     0
  9
$DIMALTTZ
 70
     0
  9
$DIMFIT
 70
     3
  9
$DIMUPT
 70
     0
  9
$DIMUNIT
 70
     2
  9
$DIMDEC
 70
     4
  9
$DIMTDEC
 70
     4
  9
$DIMALTU
 70
     2
  9
$DIMALTTD
 70
     2
  9
$DIMTXSTY
  7
STANDARD
  9
$DIMAUNIT
 70
     0
  9
$LUNITS
 70
     2
  9
$LUPREC
 70
     4
  9
$SKETCHINC
 40
0.1
  9
$FILLETRAD
 40
0.5
  9
$AUNITS
 70
     0
  9
$AUPREC
 70
     0
  9
$MENU
  1
.
  9
$ELEVATION
 40
0.0
  9
$PELEVATION
 40
0.0
  9
$THICKNESS
 40
0.0
  9
$LIMCHECK
 70
     0
  9
$CHAMFERA
 40
0.5
  9
$CHAMFERB
 40
0.5
  9
$CHAMFERC
 40
1.0
  9
$CHAMFERD
 40
0.0
  9
$SKPOLY
 70
     0
  9
$TDCREATE
 40
2457963.642915579
  9
$TDUPDATE
 40
2457963.64291559
  9
$TDINDWG
 40
0.0000000116
  9
$TDUSRTIMER
 40
0.0000000116
  9
$USRTIMER
 70
     1
  9
$ANGBASE
 50
0.0
  9
$ANGDIR
 70
     0
  9
$PDMODE
 70
     0
  9
$PDSIZE
 40
1.0
  9
$PLINEWID
 40
0.0
  9
$COORDS
 70
     1
  9
$SPLFRAME
 70
     0
  9
$SPLINETYPE
 70
     6
  9
$SPLINESEGS
 70
     8
  9
$ATTDIA
 70
     0
  9
$ATTREQ
 70
     1
  9
$HANDLING
 70
     1
  9
$HANDSEED
  5
159
  9
$SURFTAB1
 70
     6
  9
$SURFTAB2
 70
     6
  9
$SURFTYPE
 70
     6
  9
$SURFU
 70
     6
  9
$SURFV
 70
     6
  9
$UCSNAME
  2

  9
$UCSORG
 10
0.0
 20
0.0
 30
0.0
  9
$UCSXDIR
 10
1.0
 20
0.0
 30
0.0
  9
$UCSYDIR
 10
0.0
 20
1.0
 30
0.0
  9
$PUCSNAME
  2

  9
$PUCSORG
 10
0.0
 20
0.0
 30
0.0
  9
$PUCSXDIR
 10
1.0
 20
0.0
 30
0.0
  9
$PUCSYDIR
 10
0.0
 20
1.0
 30
0.0
  9
$USERI1
 70
     0
  9
$USERI2
 70
     0
  9
$USERI3
 70
     0
  9
$USERI4
 70
     0
  9
$USERI5
 70
     0
  9
$USERR1
 40
0.0
  9
$USERR2
 40
0.0
  9
$USERR3
 40
0.0
  9
$USERR4
 40
0.0
  9
$USERR5
 40
0.0
  9
$WORLDVIEW
 70
     1
  9
$SHADEDGE
 70
     3
  9
$SHADEDIF
 70
    70
  9
$TILEMODE
 70
     1
  9
$MAXACTVP
 70
    64
  9
$PINSBASE
 10
0.0
 20
0.0
 30
0.0
  9
$PLIMCHECK
 70
     0
  9
$PEXTMIN
 10
1.000000000000000E+20
 20
1.000000000000000E+20
 30
1.000000000000000E+20
  9
$PEXTMAX
 10
-1.000000000000000E+20
 20
-1.000000000000000E+20
 30
-1.000000000000000E+20
  9
$PLIMMIN
 10
0.0
 20
0.0
  9
$PLIMMAX
 10
12.0
 20
9.0
  9
$UNITMODE
 70
     0
  9
$VISRETAIN
 70
     0
  9
$PLINEGEN
 70
     1
  9
$PSLTSCALE
 70
     0
  9
$TREEDEPTH
 70
  3020
  9
$PICKSTYLE
 70
     1
  9
$CMLSTYLE
  2
STANDARD
  9
$CMLJUST
 70
     0
  9
$CMLSCALE
 40
1.0
  9
$PROXYGRAPHICS
 70
     0
  9
$MEASUREMENT
 70
     1
  0
ENDSEC
  0
SECTION
  2
CLASSES
  0
CLASS
  1
ACDBDICTIONARYWDFLT
  2
AcDbDictionaryWithDefault
  3
ObjectDBX Classes
 90
        0
280
     0
281
     0
  0
CLASS
  1
XRECORD
  2
AcDbXrecord
  3
AutoCAD 2000
 90
        0
280
     0
281
     0
  0
CLASS
  1
LWPOLYLINE
  2
AcDbPolyline
  3
AutoCAD 2000
 90
        0
280
     0
281
     1
  0
CLASS
  1
HATCH
  2
AcDbHatch
  3
AutoCAD 2000
 90
        0
280
     0
281
     1
  0
CLASS
  1
ACDBPLACEHOLDER
  2
AcDbPlaceHolder
  3
ObjectDBX Classes
 90
        0
280
     0
281
     0
  0
CLASS
  1
LAYOUT
  2
AcDbLayout
  3
ObjectDBX Classes
 90
        0
280
     0
281
     0
  0
ENDSEC
  0
SECTION
  2
TABLES
  0
TABLE
  2
VPORT
  5
8
330
0
100
AcDbSymbolTable
 70
     1
  0
VPORT
  5
29
330
8
100
AcDbSymbolTableRecord
100
AcDbViewportTableRecord
  2
*ACTIVE
 70
     0
 10
0.0
 20
0.0
 11
1.0
 21
1.0
 12
0.0
 22
0.0
 13
0.0
 23
0.0
 14
0.5
 24
0.5
 15
0.5
 25
0.5
 16
0.0
 26
0.0
 36
1.0
 17
-0.0000000000000036
 27
0.1000000000000014
 37
0.0
 40
73.6440000360584
 41
2.272485126500039
 42
50.0
 43
0.0
 44
0.0
 50
0.0
 51
0.0
 71
     0
 72
  1000
 73
     1
 74
     1
 75
     0
 76
     0
 77
     0
 78
     0
  0
ENDTAB
  0
TABLE
  2
LTYPE
  5
5
330
0
100
AcDbSymbolTable
 70
    28
  0
LTYPE
  5
14
330
5
100
AcDbSymbolTableRecord
100
AcDbLinetypeTableRecord
  2
BYBLOCK
 70
     0
  3

 72
    65
 73
     0
 40
0.0
  0
LTYPE
  5
15
330
5
100
AcDbSymbolTableRecord
100
AcDbLinetypeTableRecord
  2
BYLAYER
 70
     0
  3

 72
    65
 73
     0
 40
0.0
  0
LTYPE
  5
16
330
5
100
AcDbSymbolTableRecord
100
AcDbLinetypeTableRecord
  2
CONTINUOUS
 70
     0
  3
Solid line
 72
    65
 73
     0
 40
0.0
  0
LTYPE
  5
2B
330
5
100
AcDbSymbolTableRecord
100
AcDbLinetypeTableRecord
  2
HIDDENX2
 70
     0
  3
CADPAC LINETYPE
 72
    65
 73
     2
 40
4.525862068965466
 49
3.3943965517241
 74
     0
 49
-1.131465517241367
 74
     0
  0
LTYPE
  5
2C
330
5
100
AcDbSymbolTableRecord
100
AcDbLinetypeTableRecord
  2
HIDDEN
 70
     0
  3
CADPAC LINETYPE
 72
    65
 73
     2
 40
3.3943965517241
 49
2.262931034482733
 74
     0
 49
-1.131465517241367
 74
     0
  0
LTYPE
  5
2D
330
5
100
AcDbSymbolTableRecord
100
AcDbLinetypeTableRecord
  2
HIDDEN2
 70
     0
  3
CADPAC LINETYPE
 72
    65
 73
     2
 40
2.828663793103416
 49
1.69719827586205
 74
     0
 49
-1.131465517241367
 74
     0
  0
LTYPE
  5
2E
330
5
100
AcDbSymbolTableRecord
100
AcDbLinetypeTableRecord
  2
DASHED
 70
     0
  3
CADPAC LINETYPE
 72
    65
 73
     2
 40
3.168103448275815
 49
2.262931034482733
 74
     0
 49
-0.9051724137930819
 74
     0
  0
LTYPE
  5
2F
330
5
100
AcDbSymbolTableRecord
100
AcDbLinetypeTableRecord
  2
DASHED2
 70
     0
  3
CADPAC LINETYPE
 72
    65
 73
     2
 40
2.03663793103442
 49
1.357758620689623
 74
     0
 49
-0.6788793103447972
 74
     0
  0
LTYPE
  5
30
330
5
100
AcDbSymbolTableRecord
100
AcDbLinetypeTableRecord
  2
DASHEDX2
 70
     0
  3
CADPAC LINETYPE
 72
    65
 73
     2
 40
5.431034482758548
 49
4.525862068965466
 74
     0
 49
-0.9051724137930819
 74
     0
  0
LTYPE
  5
31
330
5
100
AcDbSymbolTableRecord
100
AcDbLinetypeTableRecord
  2
DOTX2
 70
     0
  3
CADPAC LINETYPE
 72
    65
 73
     2
 40
1.980064655172384
 49
0.0
 74
     0
 49
-1.980064655172384
 74
     0
  0
LTYPE
  5
32
330
5
100
AcDbSymbolTableRecord
100
AcDbLinetypeTableRecord
  2
DOT
 70
     0
  3
CADPAC LINETYPE
 72
    65
 73
     2
 40
1.584051724137908
 49
0.0
 74
     0
 49
-1.584051724137908
 74
     0
  0
LTYPE
  5
33
330
5
100
AcDbSymbolTableRecord
100
AcDbLinetypeTableRecord
  2
DOT2
 70
     0
  3
CADPAC LINETYPE
 72
    65
 73
     2
 40
1.188038793103431
 49
0.0
 74
     0
 49
-1.188038793103431
 74
     0
  0
LTYPE
  5
34
330
5
100
AcDbSymbolTableRecord
100
AcDbLinetypeTableRecord
  2
CENTERX2
 70
     0
  3
CADPAC LINETYPE
 72
    65
 73
     4
 40
6.788793103448199
 49
2.828663793103416
 74
     0
 49
-1.414331896551708
 74
     0
 49
1.131465517241367
 74
     0
 49
-1.414331896551708
 74
     0
  0
LTYPE
  5
35
330
5
100
AcDbSymbolTableRecord
100
AcDbLinetypeTableRecord
  2
CENTER
 70
     0
  3
CADPAC LINETYPE
 72
    65
 73
     4
 40
5.204741379310287
 49
2.262931034482733
 74
     0
 49
-1.131465517241367
 74
     0
 49
0.67887931034482
 74
     0
 49
-1.131465517241367
 74
     0
  0
LTYPE
  5
36
330
5
100
AcDbSymbolTableRecord
100
AcDbLinetypeTableRecord
  2
CENTER2
 70
     0
  3
CADPAC LINETYPE
 72
    65
 73
     4
 40
3.620689655172373
 49
1.69719827586205
 74
     0
 49
-0.8485991379310249
 74
     0
 49
0.2262931034482733
 74
     0
 49
-0.8485991379310249
 74
     0
  0
LTYPE
  5
37
330
5
100
AcDbSymbolTableRecord
100
AcDbLinetypeTableRecord
  2
DASHDOTX2
 70
     0
  3
CADPAC LINETYPE
 72
    65
 73
     4
 40
10.86206896551718
 49
5.431034482758605
 74
     0
 49
-1.810344827586192
 74
     0
 49
1.810344827586192
 74
     0
 49
-1.810344827586192
 74
     0
  0
LTYPE
  5
38
330
5
100
AcDbSymbolTableRecord
100
AcDbLinetypeTableRecord
  2
DASHDOT
 70
     0
  3
CADPAC LINETYPE
 72
    65
 73
     4
 40
5.43103448275852
 49
2.715517241379274
 74
     0
 49
-0.9051724137930819
 74
     0
 49
0.9051724137930819
 74
     0
 49
-0.9051724137930819
 74
     0
  0
LTYPE
  5
39
330
5
100
AcDbSymbolTableRecord
100
AcDbLinetypeTableRecord
  2
DASHDOT2
 70
     0
  3
CADPAC LINETYPE
 72
    65
 73
     4
 40
3.484913793103387
 49
2.036637931034456
 74
     0
 49
-0.6788793103448114
 74
     0
 49
0.0905172413793082
 74
     0
 49
-0.6788793103448114
 74
     0
  0
LTYPE
  5
3A
330
5
100
AcDbSymbolTableRecord
100
AcDbLinetypeTableRecord
  2
DIVIDEX2
 70
     0
  3
CADPAC LINETYPE
 72
    65
 73
     6
 40
14.48275862068957
 49
5.431034482758605
 74
     0
 49
-1.810344827586192
 74
     0
 49
1.810344827586192
 74
     0
 49
-1.810344827586192
 74
     0
 49
1.810344827586192
 74
     0
 49
-1.810344827586192
 74
     0
  0
LTYPE
  5
3B
330
5
100
AcDbSymbolTableRecord
100
AcDbLinetypeTableRecord
  2
DIVIDE
 70
     0
  3
CADPAC LINETYPE
 72
    65
 73
     6
 40
7.241379310344684
 49
2.715517241379274
 74
     0
 49
-0.9051724137930819
 74
     0
 49
0.9051724137930819
 74
     0
 49
-0.9051724137930819
 74
     0
 49
0.9051724137930819
 74
     0
 49
-0.9051724137930819
 74
     0
  0
LTYPE
  5
3C
330
5
100
AcDbSymbolTableRecord
100
AcDbLinetypeTableRecord
  2
DIVIDE2
 70
     0
  3
CADPAC LINETYPE
 72
    65
 73
     6
 40
5.431034482758513
 49
2.036637931034456
 74
     0
 49
-0.6788793103448114
 74
     0
 49
0.6788793103448114
 74
     0
 49
-0.6788793103448114
 74
     0
 49
0.6788793103448114
 74
     0
 49
-0.6788793103448114
 74
     0
  0
LTYPE
  5
3D
330
5
100
AcDbSymbolTableRecord
100
AcDbLinetypeTableRecord
  2
BORDERX2
 70
     0
  3
CADPAC LINETYPE
 72
    65
 73
     6
 40
9.900323275861958
 49
2.828663793103416
 74
     0
 49
-1.414331896551708
 74
     0
 49
2.828663793103416
 74
     0
 49
-1.414331896551708
 74
     0
 49
0.0
 74
     0
 49
-1.414331896551708
 74
     0
  0
LTYPE
  5
3E
330
5
100
AcDbSymbolTableRecord
100
AcDbLinetypeTableRecord
  2
BORDER
 70
     0
  3
CADPAC LINETYPE
 72
    65
 73
     6
 40
7.920258620689566
 49
2.262931034482733
 74
     0
 49
-1.131465517241367
 74
     0
 49
2.262931034482733
 74
     0
 49
-1.131465517241367
 74
     0
 49
0.0
 74
     0
 49
-1.131465517241367
 74
     0
  0
LTYPE
  5
3F
330
5
100
AcDbSymbolTableRecord
100
AcDbLinetypeTableRecord
  2
BORDER2
 70
     0
  3
CADPAC LINETYPE
 72
    65
 73
     6
 40
5.883620689655032
 49
1.810344827586192
 74
     0
 49
-1.131465517241338
 74
     0
 49
0.6788793103447972
 74
     0
 49
-1.131465517241338
 74
     0
 49
0.0
 74
     0
 49
-1.131465517241367
 74
     0
  0
LTYPE
  5
40
330
5
100
AcDbSymbolTableRecord
100
AcDbLinetypeTableRecord
  2
PHANTOMX2
 70
     0
  3
CADPAC LINETYPE
 72
    65
 73
     6
 40
8.485991379310249
 49
2.828663793103416
 74
     0
 49
-1.131465517241367
 74
     0
 49
1.131465517241367
 74
     0
 49
-1.131465517241367
 74
     0
 49
1.131465517241367
 74
     0
 49
-1.131465517241367
 74
     0
  0
LTYPE
  5
41
330
5
100
AcDbSymbolTableRecord
100
AcDbLinetypeTableRecord
  2
PHANTOM
 70
     0
  3
CADPAC LINETYPE
 72
    65
 73
     6
 40
7.015086206896473
 49
2.262931034482733
 74
     0
 49
-1.131465517241367
 74
     0
 49
0.67887931034482
 74
     0
 49
-1.131465517241367
 74
     0
 49
0.67887931034482
 74
     0
 49
-1.131465517241367
 74
     0
  0
LTYPE
  5
42
330
5
100
AcDbSymbolTableRecord
100
AcDbLinetypeTableRecord
  2
PHANTOM2
 70
     0
  3
CADPAC LINETYPE
 72
    65
 73
     6
 40
5.996767241379242
 49
1.69719827586205
 74
     0
 49
-1.131465517241367
 74
     0
 49
0.4525862068965467
 74
     0
 49
-1.131465517241367
 74
     0
 49
0.4525862068965467
 74
     0
 49
-1.131465517241367
 74
     0
  0
LTYPE
  5
43
330
5
100
AcDbSymbolTableRecord
100
AcDbLinetypeTableRecord
  2
ACAD_ISO06W100
 70
     0
  3
CADPAC LINETYPE
 72
    65
 73
     8
 40
11.99353448275835
 49
5.431034482758605
 74
     0
 49
-1.131465517241338
 74
     0
 49
0.6788793103447972
 74
     0
 49
-1.131465517241338
 74
     0
 49
0.6788793103447972
 74
     0
 49
-1.131465517241338
 74
     0
 49
0.6788793103447972
 74
     0
 49
-1.131465517241338
 74
     0
  0
LTYPE
  5
44
330
5
100
AcDbSymbolTableRecord
100
AcDbLinetypeTableRecord
  2
ACAD_ISO13W100
 70
     0
  3
CADPAC LINETYPE
 72
    65
 73
     8
 40
9.051724137930933
 49
2.262931034482733
 74
     0
 49
-1.131465517241367
 74
     0
 49
2.262931034482733
 74
     0
 49
-1.131465517241367
 74
     0
 49
0.0
 74
     0
 49
-1.131465517241367
 74
     0
 49
0.0
 74
     0
 49
-1.131465517241367
 74
     0
  0
LTYPE
  5
45
330
5
100
AcDbSymbolTableRecord
100
AcDbLinetypeTableRecord
  2
ACAD_ISO14W100
 70
     0
  3
CADPAC LINETYPE
 72
    65
 73
     8
 40
6.788793103448199
 49
2.262931034482733
 74
     0
 49
-1.131465517241367
 74
     0
 49
0.0
 74
     0
 49
-1.131465517241367
 74
     0
 49
0.0
 74
     0
 49
-1.131465517241367
 74
     0
 49
0.0
 74
     0
 49
-1.131465517241367
 74
     0
  0
ENDTAB
  0
TABLE
  2
LAYER
  5
2
330
0
100
AcDbSymbolTable
 70
     3
  0
LAYER
  5
10
330
2
100
AcDbSymbolTableRecord
100
AcDbLayerTableRecord
  2
0
 70
     0
 62
     7
  6
CONTINUOUS
  0
LAYER
  5
46
330
2
100
AcDbSymbolTableRecord
100
AcDbLayerTableRecord
  2
LAYER0001
 70
     0
 62
     7
  6
CONTINUOUS
  0
LAYER
  5
47
330
2
100
AcDbSymbolTableRecord
100
AcDbLayerTableRecord
  2
LAYER0112
 70
     0
 62
     7
  6
CONTINUOUS
  0
ENDTAB
  0
TABLE
  2
STYLE
  5
3
330
0
100
AcDbSymbolTable
 70
     2
  0
STYLE
  5
11
330
3
100
AcDbSymbolTableRecord
100
AcDbTextStyleTableRecord
  2
STANDARD
 70
     0
 40
0.0
 41
1.0
 50
0.0
 71
     0
 42
0.2
  3
txt
  4

  0
STYLE
  5
62
330
3
100
AcDbSymbolTableRecord
100
AcDbTextStyleTableRecord
  2
FDASTYLE0
 70
     0
 40
4.0
 41
0.8
 50
0.0
 71
     0
 42
0.2
  3
txt.shx
  4
bigfont
  0
ENDTAB
  0
TABLE
  2
VIEW
  5
6
330
0
100
AcDbSymbolTable
 70
     0
  0
ENDTAB
  0
TABLE
  2
UCS
  5
7
330
0
100
AcDbSymbolTable
 70
     0
  0
ENDTAB
  0
TABLE
  2
APPID
  5
9
330
0
100
AcDbSymbolTable
 70
     2
  0
APPID
  5
12
330
9
100
AcDbSymbolTableRecord
100
AcDbRegAppTableRecord
  2
ACAD
 70
     0
  0
APPID
  5
2A
330
9
100
AcDbSymbolTableRecord
100
AcDbRegAppTableRecord
  2
DAFUSIONOUT
 70
     0
  0
ENDTAB
  0
TABLE
  2
DIMSTYLE
  5
A
330
0
100
AcDbSymbolTable
 70
     1
  0
DIMSTYLE
105
27
330
A
100
AcDbSymbolTableRecord
100
AcDbDimStyleTableRecord
  2
STANDARD
 70
     0
  3

  4

  5

  6

  7

 40
1.0
 41
0.18
 42
0.0625
 43
0.38
 44
0.18
 45
0.0
 46
0.0
 47
0.0
 48
0.0
140
0.18
141
0.09
142
0.0
143
25.4
144
1.0
145
0.0
146
1.0
147
0.09
 71
     0
 72
     0
 73
     1
 74
     1
 75
     0
 76
     0
 77
     0
 78
     0
170
     0
171
     2
172
     0
173
     0
174
     0
175
     0
176
     0
177
     0
178
     0
270
     2
271
     4
272
     4
273
     2
274
     2
340
11
275
     0
280
     0
281
     0
282
     0
283
     1
284
     0
285
     0
286
     0
287
     3
288
     0
  0
ENDTAB
  0
TABLE
  2
BLOCK_RECORD
  5
1
330
0
100
AcDbSymbolTable
 70
     8
  0
BLOCK_RECORD
  5
1F
330
1
100
AcDbSymbolTableRecord
100
AcDbBlockTableRecord
  2
*MODEL_SPACE
  0
BLOCK_RECORD
  5
1B
330
1
100
AcDbSymbolTableRecord
100
AcDbBlockTableRecord
  2
*PAPER_SPACE
  0
BLOCK_RECORD
  5
49
330
1
100
AcDbSymbolTableRecord
100
AcDbBlockTableRecord
  2
DA_IMAGEDIMGROUP_1
  0
BLOCK_RECORD
  5
4C
330
1
100
AcDbSymbolTableRecord
100
AcDbBlockTableRecord
  2
DC_GROUP_1
  0
BLOCK_RECORD
  5
4F
330
1
100
AcDbSymbolTableRecord
100
AcDbBlockTableRecord
  2
DC_GROUP_2
  0
BLOCK_RECORD
  5
52
330
1
100
AcDbSymbolTableRecord
100
AcDbBlockTableRecord
  2
DC_GROUP_3
  0
BLOCK_RECORD
  5
55
330
1
100
AcDbSymbolTableRecord
100
AcDbBlockTableRecord
  2
DC_GROUP_4
  0
BLOCK_RECORD
  5
5A
330
1
100
AcDbSymbolTableRecord
100
AcDbBlockTableRecord
  2
_OPEN30
  0
BLOCK_RECORD
  5
71
330
1
100
AcDbSymbolTableRecord
100
AcDbBlockTableRecord
  2
_DOT
  0
ENDTAB
  0
ENDSEC
  0
SECTION
  2
BLOCKS
  0
BLOCK
  5
20
330
1F
100
AcDbEntity
  8
0
100
AcDbBlockBegin
  2
*MODEL_SPACE
 70
     0
 71
     0
 10
0.0
 20
0.0
 30
0.0
  3
*MODEL_SPACE
  1

  0
ENDBLK
  5
21
330
1F
100
AcDbEntity
  8
0
100
AcDbBlockEnd
  0
BLOCK
  5
1C
330
1B
100
AcDbEntity
 67
     1
  8
0
100
AcDbBlockBegin
  2
*PAPER_SPACE
 70
     0
 71
     0
 10
0.0
 20
0.0
 30
0.0
  3
*PAPER_SPACE
  1

  0
ENDBLK
  5
1D
330
1B
100
AcDbEntity
 67
     1
  8
0
100
AcDbBlockEnd
  0
BLOCK
  5
4A
330
49
100
AcDbEntity
  8
0
100
AcDbBlockBegin
  2
DA_IMAGEDIMGROUP_1
 70
     0
 71
     0
 10
0.0
 20
0.0
 30
0.0
  3
DA_IMAGEDIMGROUP_1
  1

  0
LINE
  5
58
330
49
100
AcDbEntity
  8
0
  6
CONTINUOUS
 62
     9
100
AcDbLine
 10
28.56328689318086
 20
6.300000017675682
 30
0.0
 11
28.56328689318086
 21
31.00000001767568
 31
0.0
  0
LINE
  5
59
330
49
100
AcDbEntity
  8
0
  6
CONTINUOUS
 62
     9
100
AcDbLine
 10
-10.53671310681913
 20
30.00000001767569
 30
0.0
 11
28.56328689318086
 21
30.00000001767569
 31
0.0
  0
INSERT
  5
60
330
49
100
AcDbEntity
  8
0
 62
     9
100
AcDbBlockReference
  2
_OPEN30
 10
-10.53671310681913
 20
30.00000001767569
 30
0.0
 41
3.000002787824364
 42
2.999989273978464
 50
180.0
  0
INSERT
  5
61
330
49
100
AcDbEntity
  8
0
 62
     9
100
AcDbBlockReference
  2
_OPEN30
 10
28.56328689318086
 20
30.00000001767569
 30
0.0
 41
3.000002787824364
 42
2.999989273978464
 50
360.0
  0
TEXT
  5
63
330
49
100
AcDbEntity
  8
0
 62
     7
100
AcDbText
 10
2.613286893180863
 20
31.00000001767569
 30
0.0
 40
4.0
  1
39.1
 41
0.8
  7
FDASTYLE0
 72
     5
 11
15.41328689318086
 21
31.00000001767569
 31
0.0
100
AcDbText
  0
ENDBLK
  5
4B
330
49
100
AcDbEntity
  8
0
100
AcDbBlockEnd
  0
BLOCK
  5
4D
330
4C
100
AcDbEntity
  8
0
100
AcDbBlockBegin
  2
DC_GROUP_1
 70
     0
 71
     0
 10
0.0
 20
0.0
 30
0.0
  3
DC_GROUP_1
  1

  0
LINE
  5
64
330
4C
100
AcDbEntity
  8
0
  6
CONTINUOUS
 62
     9
100
AcDbLine
 10
-11.93504358083518
 20
-2.749999982324315
 30
0.0
 11
-16.03671310681914
 21
-14.00000001767568
 31
0.0
  0
INSERT
  5
65
330
4C
100
AcDbEntity
  8
0
 62
     9
100
AcDbBlockReference
  2
_OPEN30
 10
-11.93504358083518
 20
-2.749999982324315
 30
0.0
 41
3.000002787824364
 42
2.999989273978464
 50
69.96850625153775
  0
LINE
  5
66
330
4C
100
AcDbEntity
  8
0
  6
CONTINUOUS
 62
     9
100
AcDbLine
 10
-16.03671310681914
 20
-14.00000001767568
 30
0.0
 11
-51.23671310681914
 21
-14.00000001767568
 31
0.0
  0
TEXT
  5
67
330
4C
100
AcDbEntity
  8
0
 62
     7
100
AcDbText
 10
-51.23671310681914
 20
-13.00000001767568
 30
0.0
 40
4.0
  1
Ｍ5.5（Ｐ＝0.5）
 41
0.7333333333333334
  7
FDASTYLE0
 72
     5
 11
-16.03671310681914
 21
-13.00000001767568
 31
0.0
100
AcDbText
  0
ENDBLK
  5
4E
330
4C
100
AcDbEntity
  8
0
100
AcDbBlockEnd
  0
BLOCK
  5
50
330
4F
100
AcDbEntity
  8
0
100
AcDbBlockBegin
  2
DC_GROUP_2
 70
     0
 71
     0
 10
0.0
 20
0.0
 30
0.0
  3
DC_GROUP_2
  1

  0
LINE
  5
68
330
4F
100
AcDbEntity
  8
0
  6
CONTINUOUS
 62
     9
100
AcDbLine
 10
33.03671310681915
 20
3.800000017675686
 30
0.0
 11
37.03671310681915
 21
14.00000001767568
 31
0.0
  0
INSERT
  5
69
330
4F
100
AcDbEntity
  8
0
 62
     9
100
AcDbBlockReference
  2
_OPEN30
 10
33.03671310681915
 20
3.800000017675686
 30
0.0
 41
3.000002787824364
 42
2.999989273978464
 50
248.5870305251282
  0
LINE
  5
6A
330
4F
100
AcDbEntity
  8
0
  6
CONTINUOUS
 62
     9
100
AcDbLine
 10
37.03671310681915
 20
14.00000001767568
 30
0.0
 11
56.23671310681915
 21
14.00000001767568
 31
0.0
  0
TEXT
  5
6B
330
4F
100
AcDbEntity
  8
0
 62
     7
100
AcDbText
 10
37.03671310681915
 20
15.00000001767568
 30
0.0
 40
4.0
  1
（+）ＲＥＤ
 41
0.6857142857142858
  7
FDASTYLE0
 72
     5
 11
56.23671310681915
 21
15.00000001767568
 31
0.0
100
AcDbText
  0
ENDBLK
  5
51
330
4F
100
AcDbEntity
  8
0
100
AcDbBlockEnd
  0
BLOCK
  5
53
330
52
100
AcDbEntity
  8
0
100
AcDbBlockBegin
  2
DC_GROUP_3
 70
     0
 71
     0
 10
0.0
 20
0.0
 30
0.0
  3
DC_GROUP_3
  1

  0
LINE
  5
6C
330
52
100
AcDbEntity
  8
0
  6
CONTINUOUS
 62
     9
100
AcDbLine
 10
33.03671310681915
 20
-3.799999982324314
 30
0.0
 11
37.03671310681915
 21
-14.00000001767568
 31
0.0
  0
INSERT
  5
6D
330
52
100
AcDbEntity
  8
0
 62
     9
100
AcDbBlockReference
  2
_OPEN30
 10
33.03671310681915
 20
-3.799999982324314
 30
0.0
 41
3.000002787824364
 42
2.999989273978464
 50
111.4129694073781
  0
LINE
  5
6E
330
52
100
AcDbEntity
  8
0
  6
CONTINUOUS
 62
     9
100
AcDbLine
 10
37.03671310681915
 20
-14.00000001767568
 30
0.0
 11
62.63671310681914
 21
-14.00000001767568
 31
0.0
  0
TEXT
  5
6F
330
52
100
AcDbEntity
  8
0
 62
     7
100
AcDbText
 10
37.03671310681915
 20
-13.00000001767568
 30
0.0
 40
4.0
  1
（-）ＢＬＡＣＫ
 41
0.6808510638297872
  7
FDASTYLE0
 72
     5
 11
62.63671310681915
 21
-13.00000001767568
 31
0.0
100
AcDbText
  0
ENDBLK
  5
54
330
52
100
AcDbEntity
  8
0
100
AcDbBlockEnd
  0
BLOCK
  5
56
330
55
100
AcDbEntity
  8
0
100
AcDbBlockBegin
  2
DC_GROUP_4
 70
     0
 71
     0
 10
0.0
 20
0.0
 30
0.0
  3
DC_GROUP_4
  1

  0
LINE
  5
70
330
55
100
AcDbEntity
  8
0
  6
CONTINUOUS
 62
     9
100
AcDbLine
 10
13.84367165091019
 20
-3.000000000000006
 30
0.0
 11
29.03671310681915
 21
-22.00000001767568
 31
0.0
  0
INSERT
  5
76
330
55
100
AcDbEntity
  8
0
 62
     9
100
AcDbBlockReference
  2
_DOT
 10
13.84367165091019
 20
-3.000000000000006
 30
0.0
 41
2.5
 42
2.5
 50
128.6470108454773
  0
LINE
  5
77
330
55
100
AcDbEntity
  8
0
  6
CONTINUOUS
 62
     9
100
AcDbLine
 10
29.03671310681915
 20
-22.00000001767568
 30
0.0
 11
73.83671310681915
 21
-22.00000001767568
 31
0.0
  0
TEXT
  5
78
330
55
100
AcDbEntity
  8
0
 62
     7
100
AcDbText
 10
29.03671310681915
 20
-21.00000001767568
 30
0.0
 40
4.0
  1
NAMEPLATE　LOT№
 41
0.7777777777777779
  7
FDASTYLE0
 72
     5
 11
73.83671310681916
 21
-21.00000001767568
 31
0.0
100
AcDbText
  0
ENDBLK
  5
57
330
55
100
AcDbEntity
  8
0
100
AcDbBlockEnd
  0
BLOCK
  5
5B
330
5A
100
AcDbEntity
  8
0
100
AcDbBlockBegin
  2
_OPEN30
 70
     0
 71
     0
 10
0.0
 20
0.0
 30
0.0
  3
_OPEN30
  1

  0
LINE
  5
5D
330
5A
100
AcDbEntity
  8
0
  6
BYBLOCK
 62
     0
100
AcDbLine
 10
-1.0
 20
0.267949
 30
0.0
 11
0.0
 21
0.0
 31
0.0
  0
LINE
  5
5E
330
5A
100
AcDbEntity
  8
0
  6
BYBLOCK
 62
     0
100
AcDbLine
 10
0.0
 20
0.0
 30
0.0
 11
-1.0
 21
-0.267949
 31
0.0
  0
LINE
  5
5F
330
5A
100
AcDbEntity
  8
0
  6
BYBLOCK
 62
     0
100
AcDbLine
 10
0.0
 20
0.0
 30
0.0
 11
-1.0
 21
0.0
 31
0.0
  0
ENDBLK
  5
5C
330
5A
100
AcDbEntity
  8
0
100
AcDbBlockEnd
  0
BLOCK
  5
72
330
71
100
AcDbEntity
  8
0
100
AcDbBlockBegin
  2
_DOT
 70
     0
 71
     0
 10
0.0
 20
0.0
 30
0.0
  3
_DOT
  1

  0
LWPOLYLINE
  5
74
330
71
100
AcDbEntity
  8
0
  6
BYBLOCK
 62
     0
100
AcDbPolyline
 90
        2
 70
     1
 43
0.5
 10
-0.25
 20
0.0
 42
1.0
 10
0.25
 20
0.0
 42
1.0
  0
LINE
  5
75
330
71
100
AcDbEntity
  8
0
  6
BYBLOCK
 62
     0
100
AcDbLine
 10
-0.5
 20
0.0
 30
0.0
 11
-1.0
 21
0.0
 31
0.0
  0
ENDBLK
  5
73
330
71
100
AcDbEntity
  8
0
100
AcDbBlockEnd
  0
ENDSEC
  0
SECTION
  2
ENTITIES
  0
LINE
  5
79
330
1F
100
AcDbEntity
  8
0
  6
CONTINUOUS
 62
     3
100
AcDbLine
 10
2.263286893180855
 20
-5.999999982324308
 30
0.0
 11
2.263286893180855
 21
6.000000017675699
 31
0.0
  0
ARC
  5
7A
330
1F
100
AcDbEntity
  8
0
  6
CONTINUOUS
 62
     3
100
AcDbCircle
 10
3.463286893180857
 20
-4.799999982324312
 30
0.0
 40
1.2
100
AcDbArc
 50
180.0
 51
269.9999999999999
  0
LINE
  5
7B
330
1F
100
AcDbEntity
  8
0
  6
CONTINUOUS
 62
     3
100
AcDbLine
 10
25.42405640863953
 20
-6.000000017675664
 30
0.0
 11
25.42405640863953
 21
6.000000053027019
 31
0.0
  0
LINE
  5
7C
330
1F
100
AcDbEntity
  8
0
  6
CONTINUOUS
 62
     3
100
AcDbLine
 10
25.4240563474092
 20
-6.000000017675664
 30
0.0
 11
3.463286948652133
 21
-6.000000017675678
 31
0.0
  0
ARC
  5
7D
330
1F
100
AcDbEntity
  8
0
  6
CONTINUOUS
 62
     3
100
AcDbCircle
 10
3.463286893180857
 20
4.800000017675682
 30
0.0
 40
1.2
100
AcDbArc
 50
90.0
 51
180.0
  0
LINE
  5
7E
330
1F
100
AcDbEntity
  8
0
  6
CONTINUOUS
 62
     3
100
AcDbLine
 10
25.4240563474092
 20
6.000000053027019
 30
0.0
 11
3.463286948652133
 21
6.000000053027033
 31
0.0
  0
LINE
  5
7F
330
1F
100
AcDbEntity
  8
0
  6
CONTINUOUS
 62
     3
100
AcDbLine
 10
28.66328689318085
 20
2.499999956445333
 30
0.0
 11
28.66328689318085
 21
-2.499999921093977
 31
0.0
  0
LINE
  5
80
330
1F
100
AcDbEntity
  8
0
  6
CONTINUOUS
 62
     3
100
AcDbLine
 10
28.66328689318085
 20
-2.499999921093977
 30
0.0
 11
28.56328689318085
 21
-2.499999921093977
 31
0.0
  0
LINE
  5
81
330
1F
100
AcDbEntity
  8
0
  6
CONTINUOUS
 62
     3
100
AcDbLine
 10
26.46328689318086
 20
-5.399999982324321
 30
0.0
 11
26.46328689318086
 21
5.400000017675676
 31
0.0
  0
LINE
  5
82
330
1F
100
AcDbEntity
  8
0
  6
CONTINUOUS
 62
     3
100
AcDbLine
 10
27.96328689318085
 20
-5.399999982324321
 30
0.0
 11
27.96328689318085
 21
5.400000017675676
 31
0.0
  0
LINE
  5
83
330
1F
100
AcDbEntity
  8
0
  6
CONTINUOUS
 62
     3
100
AcDbLine
 10
28.56328689318085
 20
-5.300000043554665
 30
0.0
 11
28.56328689318086
 21
5.300000017675682
 31
0.0
  0
LINE
  5
84
330
1F
100
AcDbEntity
  8
0
  6
CONTINUOUS
 62
     3
100
AcDbLine
 10
28.66328689318085
 20
2.499999956445333
 30
0.0
 11
28.56328689318086
 21
2.499999956445333
 31
0.0
  0
LINE
  5
85
330
1F
100
AcDbEntity
  8
0
  6
CONTINUOUS
 62
     3
100
AcDbLine
 10
28.56328689318085
 20
-0.6282345336244397
 30
0.0
 11
27.96328689318085
 21
-0.6282345336244397
 31
0.0
  0
LINE
  5
86
330
1F
100
AcDbEntity
  8
0
  6
CONTINUOUS
 62
     3
100
AcDbLine
 10
28.56328689318085
 20
-3.355971497434293
 30
0.0
 11
27.96328689318085
 21
-3.355971497434293
 31
0.0
  0
LINE
  5
87
330
1F
100
AcDbEntity
  8
0
  6
CONTINUOUS
 62
     3
100
AcDbLine
 10
28.56328689318085
 20
4.009960229691497
 30
0.0
 11
27.96328689318085
 21
4.009960229691497
 31
0.0
  0
LINE
  5
88
330
1F
100
AcDbEntity
  8
0
  6
CONTINUOUS
 62
     3
100
AcDbLine
 10
-12.53671310681913
 20
1.000000017675685
 30
0.0
 11
-15.03671310681915
 21
1.000000017675692
 31
0.0
  0
LINE
  5
89
330
1F
100
AcDbEntity
  8
0
  6
CONTINUOUS
 62
     3
100
AcDbLine
 10
-12.53671310681914
 20
-0.999999982324308
 30
0.0
 11
-19.93671310681913
 21
-0.9999999823242938
 31
0.0
  0
LINE
  5
8A
330
1F
100
AcDbEntity
  8
0
  6
CONTINUOUS
 62
     3
100
AcDbLine
 10
-20.03671310681913
 20
0.5000000176756991
 30
0.0
 11
-20.03671310681916
 21
-0.8999999823242924
 31
0.0
  0
LINE
  5
8B
330
1F
100
AcDbEntity
  8
0
  6
CONTINUOUS
 62
     3
100
AcDbLine
 10
-15.03671310681914
 20
0.500000017675692
 30
0.0
 11
-15.03671310681914
 21
1.000000017675692
 31
0.0
  0
LINE
  5
8C
330
1F
100
AcDbEntity
  8
0
  6
CONTINUOUS
 62
     3
100
AcDbLine
 10
-15.03671310681914
 20
0.500000017675692
 30
0.0
 11
-20.03671310681913
 21
0.5000000176756991
 31
0.0
  0
LINE
  5
8D
330
1F
100
AcDbEntity
  8
0
  6
CONTINUOUS
 62
     3
100
AcDbLine
 10
-20.03671310681916
 20
-0.8999999823242924
 30
0.0
 11
-19.93671310681913
 21
-0.9999999823242938
 31
0.0
  0
LINE
  5
8E
330
1F
100
AcDbEntity
  8
0
  6
CONTINUOUS
 62
     3
100
AcDbLine
 10
-10.03671310681916
 20
-5.999999982324308
 30
0.0
 11
2.263286893180855
 21
-5.999999982324308
 31
0.0
  0
LINE
  5
8F
330
1F
100
AcDbEntity
  8
0
  6
CONTINUOUS
 62
     3
100
AcDbLine
 10
-10.03671310681914
 20
6.000000017675692
 30
0.0
 11
2.263286893180855
 21
6.000000017675685
 31
0.0
  0
ARC
  5
90
330
1F
100
AcDbEntity
  8
0
  6
CONTINUOUS
 62
     3
100
AcDbCircle
 10
-10.03671310681913
 20
-5.499999982324304
 30
0.0
 40
0.5
100
AcDbArc
 50
180.0
 51
270.0
  0
ARC
  5
91
330
1F
100
AcDbEntity
  8
0
  6
CONTINUOUS
 62
     3
100
AcDbCircle
 10
-10.03671310681913
 20
5.500000017675692
 30
0.0
 40
0.5
100
AcDbArc
 50
89.99999999999999
 51
180.0
  0
LINE
  5
92
330
1F
100
AcDbEntity
  8
0
  6
CONTINUOUS
 62
     3
100
AcDbLine
 10
-10.53671310681913
 20
5.500000017675692
 30
0.0
 11
-10.53671310681913
 21
-5.499999982324304
 31
0.0
  0
LINE
  5
93
330
1F
100
AcDbEntity
  8
0
  6
CONTINUOUS
 62
     3
100
AcDbLine
 10
-11.03671310681913
 20
3.000000017675671
 30
0.0
 11
-11.03671310681914
 21
-2.999999982324329
 31
0.0
  0
LINE
  5
94
330
1F
100
AcDbEntity
  8
0
  6
CONTINUOUS
 62
     3
100
AcDbLine
 10
-11.33671310681912
 20
2.500000017675671
 30
0.0
 11
-11.03671310681913
 21
2.500000017675671
 31
0.0
  0
LINE
  5
95
330
1F
100
AcDbEntity
  8
0
  6
CONTINUOUS
 62
     3
100
AcDbLine
 10
-11.33671310681912
 20
-2.499999982324329
 30
0.0
 11
-11.03671310681914
 21
-2.499999982324329
 31
0.0
  0
LINE
  5
96
330
1F
100
AcDbEntity
  8
0
  6
CONTINUOUS
 62
     3
100
AcDbLine
 10
-10.73671310681915
 20
-2.999999982324329
 30
0.0
 11
-10.73671310681915
 21
3.000000017675671
 31
0.0
  0
LINE
  5
97
330
1F
100
AcDbEntity
  8
0
  6
CONTINUOUS
 62
     3
100
AcDbLine
 10
-10.73671310681915
 20
2.900000017675662
 30
0.0
 11
-10.53671310681913
 21
2.900000017675662
 31
0.0
  0
LINE
  5
98
330
1F
100
AcDbEntity
  8
0
  6
CONTINUOUS
 62
     3
100
AcDbLine
 10
-10.73671310681915
 20
-2.899999982324335
 30
0.0
 11
-10.53671310681919
 21
-2.899999982324335
 31
0.0
  0
LINE
  5
99
330
1F
100
AcDbEntity
  8
0
  6
CONTINUOUS
 62
     3
100
AcDbLine
 10
-11.03671310681913
 20
3.000000017675671
 30
0.0
 11
-10.73671310681915
 21
3.000000017675671
 31
0.0
  0
LINE
  5
9A
330
1F
100
AcDbEntity
  8
0
  6
CONTINUOUS
 62
     3
100
AcDbLine
 10
-10.73671310681915
 20
-2.999999982324329
 30
0.0
 11
-11.03671310681914
 21
-2.999999982324329
 31
0.0
  0
LINE
  5
9B
330
1F
100
AcDbEntity
  8
0
  6
CONTINUOUS
 62
     3
100
AcDbLine
 10
-12.53671310681913
 20
1.248999617355327
 30
0.0
 11
-11.33671310681912
 21
1.248999617355327
 31
0.0
  0
LINE
  5
9C
330
1F
100
AcDbEntity
  8
0
  6
CONTINUOUS
 62
     3
100
AcDbLine
 10
-12.53671310681913
 20
-1.248999582003965
 30
0.0
 11
-11.33671310681913
 21
-1.248999582003965
 31
0.0
  0
LINE
  5
9D
330
1F
100
AcDbEntity
  8
0
  6
CONTINUOUS
 62
     3
100
AcDbLine
 10
-12.53671310681914
 20
-2.749999982324315
 30
0.0
 11
-11.33671310681912
 21
-2.749999982324315
 31
0.0
  0
LINE
  5
9E
330
1F
100
AcDbEntity
  8
0
  6
CONTINUOUS
 62
     3
100
AcDbLine
 10
-12.53671310681913
 20
2.750000017675685
 30
0.0
 11
-11.33671310681912
 21
2.750000017675685
 31
0.0
  0
LINE
  5
9F
330
1F
100
AcDbEntity
  8
0
  6
CONTINUOUS
 62
     3
100
AcDbLine
 10
-12.53671310681913
 20
2.750000017675685
 30
0.0
 11
-12.53671310681913
 21
-2.749999982324315
 31
0.0
  0
LINE
  5
A0
330
1F
100
AcDbEntity
  8
0
  6
CONTINUOUS
 62
     3
100
AcDbLine
 10
-11.33671310681912
 20
2.750000017675685
 30
0.0
 11
-11.33671310681912
 21
-2.749999982324315
 31
0.0
  0
CIRCLE
  5
A1
330
1F
100
AcDbEntity
  8
0
  6
CONTINUOUS
 62
     3
100
AcDbCircle
 10
-74.03671310681914
 20
0.0000000176756849
 30
0.0
 40
6.000000000000001
  0
LINE
  5
A2
330
1F
100
AcDbEntity
  8
0
  6
CONTINUOUS
 62
     3
100
AcDbLine
 10
-72.78671310681914
 20
5.868347314828437
 30
0.0
 11
-72.78671310681914
 21
4.250000017675685
 31
0.0
  0
LINE
  5
A3
330
1F
100
AcDbEntity
  8
0
  6
CONTINUOUS
 62
     3
100
AcDbLine
 10
-75.28671310681914
 20
5.868347314828437
 30
0.0
 11
-75.28671310681914
 21
4.250000017675685
 31
0.0
  0
ARC
  5
A4
330
1F
100
AcDbEntity
  8
0
  6
CONTINUOUS
 62
     3
100
AcDbCircle
 10
-74.03671310681914
 20
4.250000017675685
 30
0.0
 40
1.25
100
AcDbArc
 50
180.0
 51
360.0
  0
CIRCLE
  5
A5
330
1F
100
AcDbEntity
  8
0
  6
CONTINUOUS
 62
     3
100
AcDbCircle
 10
-74.03671310681914
 20
0.0000000176756849
 30
0.0
 40
2.0
  0
LINE
  5
A6
330
1F
100
AcDbEntity
  8
0
  6
CONTINUOUS
 62
     3
100
AcDbLine
 10
-72.78671310681914
 20
-5.868347279477067
 30
0.0
 11
-72.78671310681914
 21
-4.249999982324315
 31
0.0
  0
LINE
  5
A7
330
1F
100
AcDbEntity
  8
0
  6
CONTINUOUS
 62
     3
100
AcDbLine
 10
-75.28671310681914
 20
-5.868347279477067
 30
0.0
 11
-75.28671310681914
 21
-4.249999982324315
 31
0.0
  0
ARC
  5
A8
330
1F
100
AcDbEntity
  8
0
  6
CONTINUOUS
 62
     3
100
AcDbCircle
 10
-74.03671310681914
 20
-4.249999982324315
 30
0.0
 40
1.25
100
AcDbArc
 50
360.0
 51
540.0
  0
CIRCLE
  5
A9
330
1F
100
AcDbEntity
  8
0
  6
CONTINUOUS
 62
     3
100
AcDbCircle
 10
-70.13671310681913
 20
0.0000000176756849
 30
0.0
 40
0.6
  0
LINE
  5
AA
330
1F
100
AcDbEntity
  8
0
  6
CONTINUOUS
 62
     3
100
AcDbLine
 10
-71.13671310681913
 20
0.768114592462549
 30
0.0
 11
-71.13671310681913
 21
-0.7681145571111863
 31
0.0
  0
LINE
  5
AB
330
1F
100
AcDbEntity
  8
0
  6
CONTINUOUS
 62
     3
100
AcDbLine
 10
-76.93671310681914
 20
0.768114592462549
 30
0.0
 11
-76.93671310681914
 21
-0.7681145571111792
 31
0.0
  0
ARC
  5
AC
330
1F
100
AcDbEntity
  8
0
  6
CONTINUOUS
 62
     3
100
AcDbCircle
 10
-74.03671310681914
 20
0.0000000176756849
 30
0.0
 40
3.0
100
AcDbArc
 50
14.83511158197584
 51
165.1648884180247
  0
ARC
  5
AD
330
1F
100
AcDbEntity
  8
0
  6
CONTINUOUS
 62
     3
100
AcDbCircle
 10
-74.03671310681914
 20
0.0000000176756849
 30
0.0
 40
3.0
100
AcDbArc
 50
194.8351115819757
 51
345.1648884180242
  0
ARC
  5
AE
330
1F
100
AcDbEntity
  8
0
  6
CONTINUOUS
 62
     3
100
AcDbCircle
 10
-74.03671310681914
 20
0.0000000176756849
 30
0.0
 40
2.75
100
AcDbArc
 50
27.0122939588656
 51
152.9877060411333
  0
ARC
  5
AF
330
1F
100
AcDbEntity
  8
0
  6
CONTINUOUS
 62
     3
100
AcDbCircle
 10
-74.03671310681914
 20
0.0000000176756849
 30
0.0
 40
2.75
100
AcDbArc
 50
207.0122939588667
 51
332.9877060411343
  0
LINE
  5
B0
330
1F
100
AcDbEntity
  8
0
  6
CONTINUOUS
 62
     3
100
AcDbLine
 10
-76.48671310681912
 20
1.24899961735537
 30
0.0
 11
-76.48671310681912
 21
-1.248999582004007
 31
0.0
  0
LINE
  5
B1
330
1F
100
AcDbEntity
  8
0
  6
CONTINUOUS
 62
     3
100
AcDbLine
 10
-71.58671310681912
 20
-1.248999582003965
 30
0.0
 11
-71.58671310681912
 21
1.24899961735532
 31
0.0
  0
CIRCLE
  5
B2
330
1F
100
AcDbEntity
  8
0
  6
CONTINUOUS
 62
     3
100
AcDbCircle
 10
-74.03671310681911
 20
0.0000000176756849
 30
0.0
 40
1.0
  0
LINE
  5
B3
330
1F
100
AcDbEntity
  8
0
  6
CONTINUOUS
 62
     3
100
AcDbLine
 10
-74.90273851060358
 20
0.5000000176756423
 30
0.0
 11
-73.17068770303469
 21
0.5000000176756423
 31
0.0
  0
LINE
  5
B4
330
1F
100
AcDbEntity
  8
0
  6
CONTINUOUS
 62
     3
100
AcDbLine
 10
-73.37001241600457
 20
4.916700708490257
 30
0.0
 11
-74.7034137976337
 21
3.583299326861113
 31
0.0
  0
LINE
  5
B5
330
1F
100
AcDbEntity
  8
0
  6
CONTINUOUS
 62
     3
100
AcDbLine
 10
-74.7034137976337
 20
4.916700708490243
 30
0.0
 11
-73.37001241600457
 21
3.583299326861148
 31
0.0
  0
CIRCLE
  5
B6
330
1F
100
AcDbEntity
  8
0
  6
CONTINUOUS
 62
     3
100
AcDbCircle
 10
-74.03671310681914
 20
4.250000017675692
 30
0.0
 40
1.2
  0
LINE
  5
B7
330
1F
100
AcDbEntity
  8
0
  6
CONTINUOUS
 62
     3
100
AcDbLine
 10
-73.37001241600457
 20
-3.583299291509757
 30
0.0
 11
-74.7034137976337
 21
-4.91670067313888
 31
0.0
  0
LINE
  5
B8
330
1F
100
AcDbEntity
  8
0
  6
CONTINUOUS
 62
     3
100
AcDbLine
 10
-74.7034137976337
 20
-3.583299291509743
 30
0.0
 11
-73.37001241600457
 21
-4.916700673138845
 31
0.0
  0
CIRCLE
  5
B9
330
1F
100
AcDbEntity
  8
0
  6
CONTINUOUS
 62
     3
100
AcDbCircle
 10
-74.03671310681914
 20
-4.249999982324294
 30
0.0
 40
1.2
  0
LINE
  5
BA
330
1F
100
AcDbEntity
  8
LAYER0112
  6
CONTINUOUS
 62
     3
100
AcDbLine
 10
26.46328689318086
 20
-5.399999982324321
 30
0.0
 11
25.42405640863953
 21
-5.999999982324315
 31
0.0
  0
LINE
  5
BB
330
1F
100
AcDbEntity
  8
LAYER0112
  6
CONTINUOUS
 62
     3
100
AcDbLine
 10
26.46328689318086
 20
5.400000017675676
 30
0.0
 11
25.42405640863953
 21
6.000000017675671
 31
0.0
  0
LINE
  5
BC
330
1F
100
AcDbEntity
  8
LAYER0112
  6
CONTINUOUS
 62
     3
100
AcDbLine
 10
27.91328689318086
 20
-5.399999982324321
 30
0.0
 11
27.96328689318085
 21
-5.349999982324324
 31
0.0
  0
LINE
  5
BD
330
1F
100
AcDbEntity
  8
LAYER0112
  6
CONTINUOUS
 62
     3
100
AcDbLine
 10
27.96328689318085
 20
-5.399999982324321
 30
0.0
 11
28.46328689318085
 21
-5.399999982324321
 31
0.0
  0
LINE
  5
BE
330
1F
100
AcDbEntity
  8
LAYER0112
  6
CONTINUOUS
 62
     3
100
AcDbLine
 10
26.46328689318086
 20
-5.399999982324321
 30
0.0
 11
27.91328689318086
 21
-5.399999982324321
 31
0.0
  0
LINE
  5
BF
330
1F
100
AcDbEntity
  8
LAYER0112
  6
CONTINUOUS
 62
     3
100
AcDbLine
 10
27.91328689318086
 20
5.400000017675676
 30
0.0
 11
27.96328689318086
 21
5.350000017675679
 31
0.0
  0
LINE
  5
C0
330
1F
100
AcDbEntity
  8
LAYER0112
  6
CONTINUOUS
 62
     3
100
AcDbLine
 10
27.96328689318086
 20
5.400000017675676
 30
0.0
 11
28.46328689318086
 21
5.400000017675676
 31
0.0
  0
LINE
  5
C1
330
1F
100
AcDbEntity
  8
LAYER0112
  6
CONTINUOUS
 62
     3
100
AcDbLine
 10
26.46328689318086
 20
5.400000017675676
 30
0.0
 11
27.91328689318086
 21
5.400000017675676
 31
0.0
  0
LINE
  5
C2
330
1F
100
AcDbEntity
  8
LAYER0001
  6
CONTINUOUS
 62
     3
100
AcDbLine
 10
72.43747586719302
 20
3.000000017675685
 30
0.0
 11
49.38920852222454
 21
3.000000017675685
 31
0.0
  0
LINE
  5
C3
330
1F
100
AcDbEntity
  8
LAYER0001
  6
CONTINUOUS
 62
     3
100
AcDbLine
 10
72.43747586719302
 20
3.800000017675682
 30
0.0
 11
49.24005597985165
 21
3.800000017675687
 31
0.0
  0
LINE
  5
C4
330
1F
100
AcDbEntity
  8
LAYER0001
  6
CONTINUOUS
 62
     3
100
AcDbLine
 10
72.43747586719302
 20
3.800000017675682
 30
0.0
 11
72.43747586719302
 21
3.000000017675685
 31
0.0
  0
LINE
  5
C5
330
1F
100
AcDbEntity
  8
LAYER0001
  6
CONTINUOUS
 62
     3
100
AcDbLine
 10
72.43747586719302
 20
-3.799999982324319
 30
0.0
 11
49.38920852222454
 21
-3.799999982324319
 31
0.0
  0
LINE
  5
C6
330
1F
100
AcDbEntity
  8
LAYER0001
  6
CONTINUOUS
 62
     3
100
AcDbLine
 10
72.43747586719302
 20
-2.999999982324322
 30
0.0
 11
49.24005597985166
 21
-2.999999982324317
 31
0.0
  0
LINE
  5
C7
330
1F
100
AcDbEntity
  8
LAYER0001
  6
CONTINUOUS
 62
     3
100
AcDbLine
 10
72.43747586719302
 20
-2.999999982324322
 30
0.0
 11
72.43747586719302
 21
-3.799999982324319
 31
0.0
  0
LINE
  5
C8
330
1F
100
AcDbEntity
  8
LAYER0001
  6
CONTINUOUS
 62
     3
100
AcDbLine
 10
28.56328689318085
 20
-2.999999982324315
 30
0.0
 11
48.57432171411739
 21
-2.999999982324317
 31
0.0
  0
LINE
  5
C9
330
1F
100
AcDbEntity
  8
LAYER0001
  6
CONTINUOUS
 62
     3
100
AcDbLine
 10
28.56328689318085
 20
-3.799999982324312
 30
0.0
 11
48.72347425649028
 21
-3.799999982324319
 31
0.0
  0
LINE
  5
CA
330
1F
100
AcDbEntity
  8
LAYER0001
  6
CONTINUOUS
 62
     3
100
AcDbLine
 10
28.56328689318086
 20
3.800000017675682
 30
0.0
 11
48.57432171411739
 21
3.800000017675696
 31
0.0
  0
LINE
  5
CB
330
1F
100
AcDbEntity
  8
LAYER0001
  6
CONTINUOUS
 62
     3
100
AcDbLine
 10
28.56328689318086
 20
3.000000017675685
 30
0.0
 11
48.72347425649027
 21
3.000000017675685
 31
0.0
  0
LINE
  5
CC
330
1F
100
AcDbEntity
  8
LAYER0001
  6
CONTINUOUS
 62
     3
100
AcDbLine
 10
28.56328689318085
 20
-5.299999982324327
 30
0.0
 11
28.46328689318085
 21
-5.399999982324321
 31
0.0
  0
LINE
  5
CD
330
1F
100
AcDbEntity
  8
LAYER0001
  6
CONTINUOUS
 62
     3
100
AcDbLine
 10
28.56328689318086
 20
5.300000017675682
 30
0.0
 11
28.46328689318086
 21
5.400000017675676
 31
0.0
  0
LINE
  5
CE
330
1F
100
AcDbEntity
  8
0
  6
CONTINUOUS
 62
     9
100
AcDbLine
 10
72.43747586719302
 20
3.600000017675679
 30
0.0
 11
77.03671310681914
 21
3.600000017675679
 31
0.0
  0
LINE
  5
CF
330
1F
100
AcDbEntity
  8
0
  6
CONTINUOUS
 62
     9
100
AcDbLine
 10
72.43747586719302
 20
3.200000017675688
 30
0.0
 11
77.03671310681914
 21
3.200000017675688
 31
0.0
  0
LINE
  5
D0
330
1F
100
AcDbEntity
  8
0
  6
CONTINUOUS
 62
     9
100
AcDbLine
 10
72.43747586719302
 20
3.300000017675682
 30
0.0
 11
77.03671310681914
 21
3.300000017675682
 31
0.0
  0
LINE
  5
D1
330
1F
100
AcDbEntity
  8
0
  6
CONTINUOUS
 62
     9
100
AcDbLine
 10
72.43747586719302
 20
3.500000017675685
 30
0.0
 11
77.03671310681914
 21
3.500000017675685
 31
0.0
  0
LINE
  5
D2
330
1F
100
AcDbEntity
  8
0
  6
CONTINUOUS
 62
     9
100
AcDbLine
 10
72.43747586719302
 20
-3.199999982324325
 30
0.0
 11
77.03671310681914
 21
-3.199999982324325
 31
0.0
  0
LINE
  5
D3
330
1F
100
AcDbEntity
  8
0
  6
CONTINUOUS
 62
     9
100
AcDbLine
 10
72.43747586719302
 20
-3.599999982324317
 30
0.0
 11
77.03671310681914
 21
-3.599999982324317
 31
0.0
  0
LINE
  5
D4
330
1F
100
AcDbEntity
  8
0
  6
CONTINUOUS
 62
     9
100
AcDbLine
 10
72.43747586719302
 20
-3.499999982324322
 30
0.0
 11
77.03671310681914
 21
-3.499999982324308
 31
0.0
  0
LINE
  5
D5
330
1F
100
AcDbEntity
  8
0
  6
CONTINUOUS
 62
     9
100
AcDbLine
 10
72.43747586719302
 20
-3.299999982324319
 30
0.0
 11
77.03671310681914
 21
-3.299999982324319
 31
0.0
  0
LINE
  5
D6
330
1F
100
AcDbEntity
  8
0
  6
CONTINUOUS
 62
     9
100
AcDbLine
 10
48.45278132279483
 20
4.451898480223978
 30
0.0
 11
48.88355055356406
 21
2.141408969734467
 31
0.0
  0
LINE
  5
D7
330
1F
100
AcDbEntity
  8
0
  6
CONTINUOUS
 62
     9
100
AcDbLine
 10
49.11851558852909
 20
4.451898480223978
 30
0.0
 11
49.54928481929832
 21
2.141408969734467
 31
0.0
  0
LINE
  5
D8
330
1F
100
AcDbEntity
  8
0
  6
CONTINUOUS
 62
     9
100
AcDbLine
 10
48.45278132279483
 20
-2.348101519776019
 30
0.0
 11
48.88355055356406
 21
-4.65859103026553
 31
0.0
  0
LINE
  5
D9
330
1F
100
AcDbEntity
  8
0
  6
CONTINUOUS
 62
     9
100
AcDbLine
 10
49.11851558852909
 20
-2.348101519776019
 30
0.0
 11
49.54928481929832
 21
-4.65859103026553
 31
0.0
  0
LINE
  5
DA
330
1F
100
AcDbEntity
  8
0
  6
CONTINUOUS
 62
     9
100
AcDbLine
 10
2.263286893180855
 20
6.500000017675699
 30
0.0
 11
2.263286893180855
 21
23.00000001767568
 31
0.0
  0
LINE
  5
DB
330
1F
100
AcDbEntity
  8
0
  6
CONTINUOUS
 62
     9
100
AcDbLine
 10
28.56328689318086
 20
5.800000017675682
 30
0.0
 11
28.56328689318086
 21
16.50000001767569
 31
0.0
  0
LINE
  5
DC
330
1F
100
AcDbEntity
  8
0
  6
CONTINUOUS
 62
     9
100
AcDbLine
 10
28.56328689318086
 20
5.800000017675682
 30
0.0
 11
28.56328689318086
 21
31.00000001767568
 31
0.0
  0
LINE
  5
DD
330
1F
100
AcDbEntity
  8
0
  6
CONTINUOUS
 62
     9
100
AcDbLine
 10
77.03671310681914
 20
4.100000017675679
 30
0.0
 11
77.03671310681914
 21
31.00000001767568
 31
0.0
  0
LINE
  5
DE
330
1F
100
AcDbEntity
  8
0
  6
CONTINUOUS
 62
     9
100
AcDbLine
 10
72.43747586719302
 20
4.300000017675682
 30
0.0
 11
72.43747586719302
 21
23.00000001767568
 31
0.0
  0
LINE
  5
DF
330
1F
100
AcDbEntity
  8
0
  6
CONTINUOUS
 62
     9
100
AcDbLine
 10
72.43747586719302
 20
22.00000001767568
 30
0.0
 11
77.03671310681914
 21
22.00000001767568
 31
0.0
  0
LINE
  5
E0
330
1F
100
AcDbEntity
  8
0
  6
CONTINUOUS
 62
     9
100
AcDbLine
 10
-20.03671310681913
 20
1.000000017675699
 30
0.0
 11
-20.03671310681913
 21
23.00000001767568
 31
0.0
  0
LINE
  5
E1
330
1F
100
AcDbEntity
  8
0
  6
CONTINUOUS
 62
     9
100
AcDbLine
 10
-15.03671310681915
 20
1.500000017675692
 30
0.0
 11
-15.03671310681915
 21
15.00000001767568
 31
0.0
  0
LINE
  5
E2
330
1F
100
AcDbEntity
  8
0
  6
CONTINUOUS
 62
     9
100
AcDbLine
 10
-20.03671310681913
 20
14.00000001767568
 30
0.0
 11
-15.03671310681915
 21
14.00000001767568
 31
0.0
  0
LINE
  5
E3
330
1F
100
AcDbEntity
  8
0
  6
CONTINUOUS
 62
     9
100
AcDbLine
 10
2.263286893180855
 20
6.500000017675685
 30
0.0
 11
2.263286893180855
 21
11.32489060467097
 31
0.0
  0
LINE
  5
E4
330
1F
100
AcDbEntity
  8
0
  6
CONTINUOUS
 62
     9
100
AcDbLine
 10
-12.53671310681913
 20
3.250000017675699
 30
0.0
 11
-12.53671310681913
 21
23.00000001767568
 31
0.0
  0
LINE
  5
E5
330
1F
100
AcDbEntity
  8
0
  6
CONTINUOUS
 62
     9
100
AcDbLine
 10
-10.53671310681913
 20
6.000000017675692
 30
0.0
 11
-10.53671310681913
 21
31.00000001767568
 31
0.0
  0
LINE
  5
E6
330
1F
100
AcDbEntity
  8
0
  6
CONTINUOUS
 62
     9
100
AcDbLine
 10
-12.53671310681913
 20
22.00000001767568
 30
0.0
 11
-10.53671310681913
 21
22.00000001767568
 31
0.0
  0
LINE
  5
E7
330
1F
100
AcDbEntity
  8
0
  6
DIVIDE
 62
     9
100
AcDbLine
 10
6.843671650910192
 20
6.000000017675665
 30
0.0
 11
6.843671650910192
 21
-6.000000017675694
 31
0.0
  0
LINE
  5
E8
330
1F
100
AcDbEntity
  8
0
  6
DIVIDE
 62
     9
100
AcDbLine
 10
20.8436716509102
 20
5.951052856087301
 30
0.0
 11
20.84367165091019
 21
-6.000000017675664
 31
0.0
  0
LINE
  5
E9
330
1F
100
AcDbEntity
  8
0
  6
CENTER
 62
     9
100
AcDbLine
 10
-22.03671310681914
 20
0.0000000176756909
 30
0.0
 11
30.66328689318085
 21
0.0000000176756714
 31
0.0
  0
LINE
  5
EA
330
1F
100
AcDbEntity
  8
0
  6
CENTER
 62
     9
100
AcDbLine
 10
-12.53671310681913
 20
2.500000017675685
 30
0.0
 11
-11.33671310681912
 21
2.500000017675685
 31
0.0
  0
LINE
  5
EB
330
1F
100
AcDbEntity
  8
0
  6
CENTER
 62
     9
100
AcDbLine
 10
-12.53671310681913
 20
-2.499999982324315
 30
0.0
 11
-11.33671310681912
 21
-2.499999982324315
 31
0.0
  0
ARC
  5
EC
330
1F
100
AcDbEntity
  8
0
  6
CENTER
 62
     9
100
AcDbCircle
 10
-74.03671310681914
 20
0.0000000176756849
 30
0.0
 40
2.500000000000001
100
AcDbArc
 50
11.47834095453328
 51
168.5216590454675
  0
ARC
  5
ED
330
1F
100
AcDbEntity
  8
0
  6
CENTER
 62
     9
100
AcDbCircle
 10
-74.03671310681914
 20
0.0000000176756849
 30
0.0
 40
2.500000000000001
100
AcDbArc
 50
191.4783409545325
 51
348.5216590454666
  0
LINE
  5
EE
330
1F
100
AcDbEntity
  8
0
  6
CENTER
 62
     9
100
AcDbLine
 10
-75.78671310681914
 20
4.250000017675685
 30
0.0
 11
-72.28671310681914
 21
4.250000017675685
 31
0.0
  0
LINE
  5
EF
330
1F
100
AcDbEntity
  8
0
  6
CENTER
 62
     9
100
AcDbLine
 10
-75.78671310681914
 20
-4.249999982324315
 30
0.0
 11
-72.28671310681914
 21
-4.249999982324315
 31
0.0
  0
LINE
  5
F0
330
1F
100
AcDbEntity
  8
0
  6
CONTINUOUS
 62
     9
100
AcDbLine
 10
2.263286893180855
 20
22.00000001767568
 30
0.0
 11
28.56328689318086
 21
22.00000001767568
 31
0.0
  0
INSERT
  5
F1
330
1F
100
AcDbEntity
  8
0
 62
     9
100
AcDbBlockReference
  2
_OPEN30
 10
2.263286893180855
 20
22.00000001767568
 30
0.0
 41
3.000002787824364
 42
2.999989273978464
 50
180.0
  0
INSERT
  5
F2
330
1F
100
AcDbEntity
  8
0
 62
     9
100
AcDbBlockReference
  2
_OPEN30
 10
28.56328689318086
 20
22.00000001767568
 30
0.0
 41
3.000002787824364
 42
2.999989273978464
 50
360.0
  0
LINE
  5
F3
330
1F
100
AcDbEntity
  8
0
  6
CONTINUOUS
 62
     9
100
AcDbLine
 10
28.56328689318086
 20
30.00000001767569
 30
0.0
 11
77.03671310681914
 21
30.00000001767569
 31
0.0
  0
INSERT
  5
F4
330
1F
100
AcDbEntity
  8
0
 62
     9
100
AcDbBlockReference
  2
_OPEN30
 10
28.56328689318086
 20
30.00000001767569
 30
0.0
 41
3.000002787824364
 42
2.999989273978464
 50
180.0
  0
INSERT
  5
F5
330
1F
100
AcDbEntity
  8
0
 62
     9
100
AcDbBlockReference
  2
_OPEN30
 10
77.03671310681914
 20
30.00000001767569
 30
0.0
 41
3.000002787824364
 42
2.999989273978464
 50
360.0
  0
LINE
  5
F6
330
1F
100
AcDbEntity
  8
0
  6
CONTINUOUS
 62
     9
100
AcDbLine
 10
-20.03671310681913
 20
22.00000001767568
 30
0.0
 11
-12.53671310681913
 21
22.00000001767568
 31
0.0
  0
INSERT
  5
F7
330
1F
100
AcDbEntity
  8
0
 62
     9
100
AcDbBlockReference
  2
_DOT
 10
-12.53671310681913
 20
22.00000001767568
 30
0.0
 41
2.5
 42
2.5
 50
360.0
  0
LINE
  5
F8
330
1F
100
AcDbEntity
  8
0
  6
CONTINUOUS
 62
     9
100
AcDbLine
 10
-10.53671310681913
 20
22.00000001767568
 30
0.0
 11
-4.565726143192073
 21
22.00000001767568
 31
0.0
  0
INSERT
  5
F9
330
1F
100
AcDbEntity
  8
0
 62
     9
100
AcDbBlockReference
  2
_OPEN30
 10
-10.53671310681913
 20
22.00000001767568
 30
0.0
 41
3.000002787824364
 42
2.999989273978464
 50
180.0
  0
LINE
  5
FA
330
1F
100
AcDbEntity
  8
0
  6
CONTINUOUS
 62
     9
100
AcDbLine
 10
-15.03671310681915
 20
14.00000001767568
 30
0.0
 11
-8.1623364734423
 21
14.00000001767568
 31
0.0
  0
INSERT
  5
FB
330
1F
100
AcDbEntity
  8
0
 62
     9
100
AcDbBlockReference
  2
_OPEN30
 10
-15.03671310681915
 20
14.00000001767568
 30
0.0
 41
3.000002787824364
 42
2.999989273978464
 50
180.0
  0
LINE
  5
FC
330
1F
100
AcDbEntity
  8
0
  6
CONTINUOUS
 62
     9
100
AcDbLine
 10
-20.03671310681913
 20
14.00000001767568
 30
0.0
 11
-26.26712184963095
 21
14.00000001767568
 31
0.0
  0
INSERT
  5
FD
330
1F
100
AcDbEntity
  8
0
 62
     9
100
AcDbBlockReference
  2
_OPEN30
 10
-20.03671310681913
 20
14.00000001767568
 30
0.0
 41
3.000002787824364
 42
2.999989273978464
 50
360.0
  0
LINE
  5
FE
330
1F
100
AcDbEntity
  8
0
  6
CONTINUOUS
 62
     9
100
AcDbLine
 10
-2.43893310681913
 20
22.00000001767568
 30
0.0
 11
-10.53671310681913
 21
22.00000001767568
 31
0.0
  0
INSERT
  5
FF
330
1F
100
AcDbEntity
  8
0
 62
     9
100
AcDbBlockReference
  2
_OPEN30
 10
-10.53671310681913
 20
22.00000001767568
 30
0.0
 41
3.000002787824364
 42
2.999989273978464
 50
180.0
  0
LINE
  5
100
330
1F
100
AcDbEntity
  8
0
  6
CONTINUOUS
 62
     9
100
AcDbLine
 10
-25.03671310681913
 20
22.00000001767568
 30
0.0
 11
-20.03671310681913
 21
22.00000001767568
 31
0.0
  0
INSERT
  5
101
330
1F
100
AcDbEntity
  8
0
 62
     9
100
AcDbBlockReference
  2
_OPEN30
 10
-20.03671310681913
 20
22.00000001767568
 30
0.0
 41
3.000002787824364
 42
2.999989273978464
 50
360.0
  0
LINE
  5
102
330
1F
100
AcDbEntity
  8
0
  6
CONTINUOUS
 62
     9
100
AcDbLine
 10
61.13969586719303
 20
22.00000001767568
 30
0.0
 11
72.43747586719302
 21
22.00000001767568
 31
0.0
  0
INSERT
  5
103
330
1F
100
AcDbEntity
  8
0
 62
     9
100
AcDbBlockReference
  2
_OPEN30
 10
72.43747586719302
 20
22.00000001767568
 30
0.0
 41
3.000002787824364
 42
2.999989273978464
 50
360.0
  0
LINE
  5
104
330
1F
100
AcDbEntity
  8
0
  6
CONTINUOUS
 62
     9
100
AcDbLine
 10
82.03671310681914
 20
22.00000001767568
 30
0.0
 11
77.03671310681914
 21
22.00000001767568
 31
0.0
  0
INSERT
  5
105
330
1F
100
AcDbEntity
  8
0
 62
     9
100
AcDbBlockReference
  2
_OPEN30
 10
77.03671310681914
 20
22.00000001767568
 30
0.0
 41
3.000002787824364
 42
2.999989273978464
 50
180.0
  0
TEXT
  5
106
330
1F
100
AcDbEntity
  8
0
 62
     7
100
AcDbText
 10
9.013286893180856
 20
23.00000001767568
 30
0.0
 40
4.0
  1
26.3
 41
0.8000000000000002
  7
FDASTYLE0
 72
     5
 11
21.81328689318086
 21
23.00000001767568
 31
0.0
100
AcDbText
  0
TEXT
  5
107
330
1F
100
AcDbEntity
  8
0
 62
     7
100
AcDbText
 10
44.38000000000001
 20
31.00000001767568
 30
0.0
 40
4.0
  1
140
 41
0.7999999999999995
  7
FDASTYLE0
 72
     5
 11
53.98
 21
31.00000001767568
 31
0.0
100
AcDbText
  0
TEXT
  5
108
330
1F
100
AcDbEntity
  8
0
 62
     7
100
AcDbText
 10
54.98
 20
33.60000001767568
 30
0.0
 40
2.6
  1
±10
 41
0.7500000000000002
  7
FDASTYLE0
 72
     5
 11
61.22000000000001
 21
33.60000001767568
 31
0.0
100
AcDbText
  0
TEXT
  5
109
330
1F
100
AcDbEntity
  8
0
 62
     7
100
AcDbText
 10
62.13969586719303
 20
23.00000001767568
 30
0.0
 40
4.0
  1
10
 41
0.7999999999999998
  7
FDASTYLE0
 72
     5
 11
68.53969586719303
 21
23.00000001767568
 31
0.0
100
AcDbText
  0
TEXT
  5
10A
330
1F
100
AcDbEntity
  8
0
 62
     7
100
AcDbText
 10
69.53969586719303
 20
25.60000001767568
 30
0.0
 40
2.6
  1
±2
 41
0.7272727272727266
  7
FDASTYLE0
 72
     5
 11
73.69969586719303
 21
25.60000001767568
 31
0.0
100
AcDbText
  0
TEXT
  5
10B
330
1F
100
AcDbEntity
  8
0
 62
     7
100
AcDbText
 10
-19.13671310681914
 20
15.00000001767568
 30
0.0
 40
4.0
  1
5
 41
0.8000000000000003
  7
FDASTYLE0
 72
     5
 11
-15.93671310681914
 21
15.00000001767568
 31
0.0
100
AcDbText
  0
TEXT
  5
10C
330
1F
100
AcDbEntity
  8
0
 62
     7
100
AcDbText
 10
-21.08671310681913
 20
23.00000001767568
 30
0.0
 40
4.0
  1
7.5
 41
0.8000000000000002
  7
FDASTYLE0
 72
     5
 11
-11.48671310681913
 21
23.00000001767568
 31
0.0
100
AcDbText
  0
TEXT
  5
10D
330
1F
100
AcDbEntity
  8
0
 62
     7
100
AcDbText
 10
-6.638933106819131
 20
23.00000001767568
 30
0.0
 40
4.0
  1
2
 41
0.8
  7
FDASTYLE0
 72
     5
 11
-3.438933106819131
 21
23.00000001767568
 31
0.0
100
AcDbText
  0
TEXT
  5
10E
330
1F
100
AcDbEntity
  8
0
 62
     7
100
AcDbText
 10
-29.03671310681914
 20
6.900000017675692
 30
0.0
 40
4.0
  1
1.5
 50
90.0
 41
0.8000000000000003
  7
FDASTYLE0
 72
     5
 11
-29.03671310681914
 21
16.5000000176757
 31
0.0
100
AcDbText
  0
TEXT
  5
10F
330
1F
100
AcDbEntity
  8
0
 62
     7
100
AcDbText
 10
-37.03671310681914
 20
6.900000017675692
 30
0.0
 40
4.0
  1
φ2
 50
90.0
 41
0.7272727272727271
  7
FDASTYLE0
 72
     5
 11
-37.03671310681914
 21
13.30000001767569
 31
0.0
100
AcDbText
  0
TEXT
  5
110
330
1F
100
AcDbEntity
  8
0
 62
     7
100
AcDbText
 10
-45.03671310681914
 20
6.897780017675672
 30
0.0
 40
4.0
  1
φ6
 50
90.0
 41
0.7272727272727271
  7
FDASTYLE0
 72
     5
 11
-45.03671310681914
 21
13.29778001767567
 31
0.0
100
AcDbText
  0
TEXT
  5
111
330
1F
100
AcDbEntity
  8
0
 62
     7
100
AcDbText
 10
-53.03671310681914
 20
-9.459999982324312
 30
0.0
 40
4.0
  1
φ12
 50
90.0
 41
0.7500000000000007
  7
FDASTYLE0
 72
     5
 11
-53.03671310681914
 21
0.1400000176756961
 31
0.0
100
AcDbText
  0
TEXT
  5
112
330
1F
100
AcDbEntity
  8
0
 62
     7
100
AcDbText
 10
-31.63671310681914
 20
17.5000000176757
 30
0.0
 40
2.6
  1
±0.1
 50
90.0
 41
0.7619047619047619
  7
FDASTYLE0
 72
     5
 11
-31.63671310681914
 21
25.8200000176757
 31
0.0
100
AcDbText
  0
TEXT
  5
113
330
1F
100
AcDbEntity
  8
0
 62
     7
100
AcDbText
 10
-36.83671310681914
 20
14.30000001767569
 30
0.0
 40
2.6
  1
-0.020
 50
90.0
 41
0.7999999999999999
  7
FDASTYLE0
 72
     5
 11
-36.83671310681914
 21
26.78000001767569
 31
0.0
100
AcDbText
  0
TEXT
  5
114
330
1F
100
AcDbEntity
  8
0
 62
     7
100
AcDbText
 10
-39.63671310681914
 20
14.30000001767569
 30
0.0
 40
2.6
  1
+0.005
 50
90.0
 41
0.7999999999999999
  7
FDASTYLE0
 72
     5
 11
-39.63671310681914
 21
26.78000001767569
 31
0.0
100
AcDbText
  0
TEXT
  5
115
330
1F
100
AcDbEntity
  8
0
 62
     7
100
AcDbText
 10
-44.83671310681914
 20
14.29778001767567
 30
0.0
 40
2.6
  1
-0.045
 50
90.0
 41
0.7999999999999997
  7
FDASTYLE0
 72
     5
 11
-44.83671310681914
 21
26.77778001767567
 31
0.0
100
AcDbText
  0
TEXT
  5
116
330
1F
100
AcDbEntity
  8
0
 62
     7
100
AcDbText
 10
-47.63671310681914
 20
14.29778001767567
 30
0.0
 40
2.6
  1
+0.005
 50
90.0
 41
0.7999999999999997
  7
FDASTYLE0
 72
     5
 11
-47.63671310681914
 21
26.77778001767567
 31
0.0
100
AcDbText
  0
TEXT
  5
117
330
1F
100
AcDbEntity
  8
0
 62
     7
100
AcDbText
 10
-55.63671310681914
 20
1.140000017675689
 30
0.0
 40
2.6
  1
±0.2
 50
90.0
 41
0.7619047619047619
  7
FDASTYLE0
 72
     5
 11
-55.63671310681914
 21
9.460000017675689
 31
0.0
100
AcDbText
  0
TEXT
  5
118
330
1F
100
AcDbEntity
  8
0
 62
     7
100
AcDbText
 10
-67.2
 20
-36.00000001767568
 30
0.0
 40
4.0
  1
※THE CABLE LOCATION IS FOR REFERENCE ONLY.
 41
0.7962085308056872
  7
FDASTYLE0
 72
     5
 11
67.2
 21
-36.00000001767568
 31
0.0
100
AcDbText
  0
LINE
  5
119
330
1F
100
AcDbEntity
  8
0
  6
CONTINUOUS
 62
     9
100
AcDbLine
 10
-21.03671310681913
 20
0.5000000176756991
 30
0.0
 11
-29.03671310681914
 21
0.5000000176756991
 31
0.0
  0
LINE
  5
11A
330
1F
100
AcDbEntity
  8
0
  6
CONTINUOUS
 62
     9
100
AcDbLine
 10
-28.03671310681914
 20
-0.9999999210939627
 30
0.0
 11
-28.03671310681914
 21
0.5000000176756991
 31
0.0
  0
LINE
  5
11B
330
1F
100
AcDbEntity
  8
0
  6
CONTINUOUS
 62
     9
100
AcDbLine
 10
-20.93671310681913
 20
-0.9999999210939627
 30
0.0
 11
-37.03671310681914
 21
-0.9999999210939627
 31
0.0
  0
LINE
  5
11C
330
1F
100
AcDbEntity
  8
0
  6
CONTINUOUS
 62
     9
100
AcDbLine
 10
-16.03671310681914
 20
1.000000017675692
 30
0.0
 11
-37.03671310681914
 21
1.000000017675692
 31
0.0
  0
LINE
  5
11D
330
1F
100
AcDbEntity
  8
0
  6
CONTINUOUS
 62
     9
100
AcDbLine
 10
-36.03671310681914
 20
-0.9999999210939627
 30
0.0
 11
-36.03671310681914
 21
1.000000017675692
 31
0.0
  0
LINE
  5
11E
330
1F
100
AcDbEntity
  8
0
  6
CONTINUOUS
 62
     9
100
AcDbLine
 10
-12.03671310681914
 20
-2.999999982324329
 30
0.0
 11
-45.03671310681914
 21
-2.999999982324329
 31
0.0
  0
LINE
  5
11F
330
1F
100
AcDbEntity
  8
0
  6
CONTINUOUS
 62
     9
100
AcDbLine
 10
-12.03671310681913
 20
3.000000017675671
 30
0.0
 11
-45.03671310681914
 21
3.000000017675671
 31
0.0
  0
LINE
  5
120
330
1F
100
AcDbEntity
  8
0
  6
CONTINUOUS
 62
     9
100
AcDbLine
 10
-44.03671310681914
 20
-2.999999982324329
 30
0.0
 11
-44.03671310681914
 21
3.000000017675671
 31
0.0
  0
LINE
  5
121
330
1F
100
AcDbEntity
  8
0
  6
CONTINUOUS
 62
     9
100
AcDbLine
 10
-11.03671310681916
 20
-5.999999982324308
 30
0.0
 11
-53.03671310681914
 21
-5.999999982324308
 31
0.0
  0
LINE
  5
122
330
1F
100
AcDbEntity
  8
0
  6
CONTINUOUS
 62
     9
100
AcDbLine
 10
-11.03671310681913
 20
6.000000017675692
 30
0.0
 11
-53.03671310681914
 21
6.000000017675692
 31
0.0
  0
LINE
  5
123
330
1F
100
AcDbEntity
  8
0
  6
CONTINUOUS
 62
     9
100
AcDbLine
 10
-52.03671310681914
 20
-5.999999982324308
 30
0.0
 11
-52.03671310681914
 21
6.000000017675692
 31
0.0
  0
INSERT
  5
124
330
1F
100
AcDbEntity
  8
0
 62
     9
100
AcDbBlockReference
  2
_OPEN30
 10
-52.03671310681914
 20
-5.999999982324308
 30
0.0
 41
3.000002787824364
 42
2.999989273978464
 50
270.0
  0
INSERT
  5
125
330
1F
100
AcDbEntity
  8
0
 62
     9
100
AcDbBlockReference
  2
_OPEN30
 10
-52.03671310681914
 20
6.000000017675692
 30
0.0
 41
3.000002787824364
 42
2.999989273978464
 50
90.0
  0
LINE
  5
126
330
1F
100
AcDbEntity
  8
0
  6
CENTER
 62
     9
100
AcDbLine
 10
-66.03671310681915
 20
0.0000000176756849
 30
0.0
 11
-82.03671310681914
 21
0.0000000176756849
 31
0.0
  0
LINE
  5
127
330
1F
100
AcDbEntity
  8
0
  6
CENTER
 62
     9
100
AcDbLine
 10
-74.03671310681914
 20
8.000000017675685
 30
0.0
 11
-74.03671310681914
 21
-7.999999982324315
 31
0.0
  0
LINE
  5
128
330
1F
100
AcDbEntity
  8
0
  6
CONTINUOUS
 62
     9
100
AcDbLine
 10
-44.03671310681914
 20
27.77778001767568
 30
0.0
 11
-44.03671310681914
 21
3.000000017675671
 31
0.0
  0
INSERT
  5
129
330
1F
100
AcDbEntity
  8
0
 62
     9
100
AcDbBlockReference
  2
_OPEN30
 10
-44.03671310681914
 20
3.000000017675671
 30
0.0
 41
3.000002787824364
 42
2.999989273978464
 50
270.0
  0
LINE
  5
12A
330
1F
100
AcDbEntity
  8
0
  6
CONTINUOUS
 62
     9
100
AcDbLine
 10
-44.03671310681914
 20
-7.999999982324329
 30
0.0
 11
-44.03671310681914
 21
-2.999999982324329
 31
0.0
  0
INSERT
  5
12B
330
1F
100
AcDbEntity
  8
0
 62
     9
100
AcDbBlockReference
  2
_OPEN30
 10
-44.03671310681914
 20
-2.999999982324329
 30
0.0
 41
3.000002787824364
 42
2.999989273978464
 50
90.0
  0
LINE
  5
12C
330
1F
100
AcDbEntity
  8
0
  6
CONTINUOUS
 62
     9
100
AcDbLine
 10
-36.03671310681914
 20
27.7800000176757
 30
0.0
 11
-36.03671310681914
 21
1.000000017675692
 31
0.0
  0
INSERT
  5
12D
330
1F
100
AcDbEntity
  8
0
 62
     9
100
AcDbBlockReference
  2
_OPEN30
 10
-36.03671310681914
 20
1.000000017675692
 30
0.0
 41
3.000002787824364
 42
2.999989273978464
 50
270.0
  0
LINE
  5
12E
330
1F
100
AcDbEntity
  8
0
  6
CONTINUOUS
 62
     9
100
AcDbLine
 10
-36.03671310681914
 20
-5.999999921093963
 30
0.0
 11
-36.03671310681914
 21
-0.9999999210939627
 31
0.0
  0
INSERT
  5
12F
330
1F
100
AcDbEntity
  8
0
 62
     9
100
AcDbBlockReference
  2
_OPEN30
 10
-36.03671310681914
 20
-0.9999999210939627
 30
0.0
 41
3.000002787824364
 42
2.999989273978464
 50
90.0
  0
LINE
  5
130
330
1F
100
AcDbEntity
  8
0
  6
CONTINUOUS
 62
     9
100
AcDbLine
 10
-28.03671310681914
 20
26.8200000176757
 30
0.0
 11
-28.03671310681914
 21
0.5000000176756991
 31
0.0
  0
INSERT
  5
131
330
1F
100
AcDbEntity
  8
0
 62
     9
100
AcDbBlockReference
  2
_OPEN30
 10
-28.03671310681914
 20
0.5000000176756991
 30
0.0
 41
3.000002787824364
 42
2.999989273978464
 50
270.0
  0
LINE
  5
132
330
1F
100
AcDbEntity
  8
0
  6
CONTINUOUS
 62
     9
100
AcDbLine
 10
-28.03671310681914
 20
-5.999999921093963
 30
0.0
 11
-28.03671310681914
 21
-0.9999999210939627
 31
0.0
  0
INSERT
  5
133
330
1F
100
AcDbEntity
  8
0
 62
     9
100
AcDbBlockReference
  2
_OPEN30
 10
-28.03671310681914
 20
-0.9999999210939627
 30
0.0
 41
3.000002787824364
 42
2.999989273978464
 50
89.99999999999996
  0
INSERT
  5
134
330
1F
100
AcDbEntity
  8
0
  6
CONTINUOUS
100
AcDbBlockReference
  2
DA_IMAGEDIMGROUP_1
 10
0.0
 20
0.0
 30
0.0
  0
INSERT
  5
135
330
1F
100
AcDbEntity
  8
0
  6
CONTINUOUS
100
AcDbBlockReference
  2
DC_GROUP_1
 10
0.0
 20
0.0
 30
0.0
  0
INSERT
  5
136
330
1F
100
AcDbEntity
  8
0
  6
CONTINUOUS
100
AcDbBlockReference
  2
DC_GROUP_2
 10
0.0
 20
0.0
 30
0.0
  0
INSERT
  5
137
330
1F
100
AcDbEntity
  8
0
  6
CONTINUOUS
100
AcDbBlockReference
  2
DC_GROUP_3
 10
0.0
 20
0.0
 30
0.0
  0
INSERT
  5
138
330
1F
100
AcDbEntity
  8
0
  6
CONTINUOUS
100
AcDbBlockReference
  2
DC_GROUP_4
 10
0.0
 20
0.0
 30
0.0
  0
VIEWPORT
  5
48
330
1B
100
AcDbEntity
 67
     1
  8
0
100
AcDbViewport
 10
0.0
 20
0.0999999999999943
 30
0.0
 40
492.2202786409148
 41
216.6000001060541
 68
     1
 69
     1
1001
ACAD
1000
MVIEW
1002
{
1070
    16
1010
0.0
1020
0.0
1030
0.0
1010
0.0
1020
0.0
1030
1.0
1040
0.0
1040
216.6000001060541
1040
0.0
1040
0.0999999999999943
1040
50.0
1040
0.0
1040
0.0
1070
     0
1070
   100
1070
     0
1070
     1
1070
     0
1070
     0
1070
     0
1070
     0
1040
0.0
1040
0.0
1040
0.0
1040
0.5
1040
0.5
1040
0.0
1040
0.0
1070
     0
1002
{
1002
}
1002
}
  0
ENDSEC
  0
SECTION
  2
OBJECTS
  0
DICTIONARY
  5
C
330
0
100
AcDbDictionary
  3
ACAD_GROUP
350
D
  3
ACAD_LAYOUT
350
1A
  3
ACAD_MLINESTYLE
350
17
  3
ACAD_PLOTSETTINGS
350
19
  3
ACDBHEADERROUNDTRIPXREC
350
139
  0
DICTIONARY
  5
D
102
{ACAD_REACTORS
330
C
102
}
330
C
100
AcDbDictionary
  0
DICTIONARY
  5
1A
102
{ACAD_REACTORS
330
C
102
}
330
C
100
AcDbDictionary
  0
DICTIONARY
  5
17
102
{ACAD_REACTORS
330
C
102
}
330
C
100
AcDbDictionary
  3
STANDARD
350
18
  0
DICTIONARY
  5
19
102
{ACAD_REACTORS
330
C
102
}
330
C
100
AcDbDictionary
  0
DICTIONARY
  5
139
102
{ACAD_REACTORS
330
C
102
}
330
C
100
AcDbDictionary
  3
CEPSNTYPE
350
142
  3
DIMSTYLEDATA
350
158
  3
FINGERPRINTGUID
350
143
  3
HYPERLINKBASE
350
13C
  3
INSUNITS
350
141
  3
LAYOUTDICT
350
13E
  3
LWETCUNION
350
140
  3
PLOTSETDICT
350
13F
  3
PSVPSCALE
350
145
  3
PUCSBASE
350
148
  3
PUCSORGBACK
350
14E
  3
PUCSORGBOTTOM
350
14A
  3
PUCSORGFRONT
350
14D
  3
PUCSORGLEFT
350
14B
  3
PUCSORGRIGHT
350
14C
  3
PUCSORGTOP
350
149
  3
PUCSORTHOREF
350
146
  3
PUCSORTHOVIEW
350
147
  3
STYLESHEET
350
13D
  3
TSTACKALIGN
350
13A
  3
TSTACKSIZE
350
13B
  3
UCSBASE
350
151
  3
UCSORGBACK
350
157
  3
UCSORGBOTTOM
350
153
  3
UCSORGFRONT
350
156
  3
UCSORGLEFT
350
154
  3
UCSORGRIGHT
350
155
  3
UCSORGTOP
350
152
  3
UCSORTHOREF
350
14F
  3
UCSORTHOVIEW
350
150
  3
VERSIONGUID
350
144
  0
MLINESTYLE
  5
18
102
{ACAD_REACTORS
330
17
102
}
330
17
100
AcDbMlineStyle
  2
Standard
 70
     0
  3

 62
   256
 51
90.0
 52
90.0
 71
     2
 49
0.5
 62
   256
  6
BYLAYER
 49
-0.5
 62
   256
  6
BYLAYER
  0
XRECORD
  5
142
102
{ACAD_REACTORS
330
139
102
}
330
139
100
AcDbXrecord
 90
        0
  0
XRECORD
  5
158
102
{ACAD_REACTORS
330
139
102
}
330
139
100
AcDbXrecord
1000
DSTYLE
1002
{
1070
   171
 70
     2
1070
   143
 40
25.4
1070
   274
 70
     2
1070
   141
 40
0.09
1070
   271
 70
     4
1070
    43
 40
0.38
1070
    44
 40
0.18
1070
   278
 70
    46
1070
    42
 40
0.0625
1070
   147
 40
0.09
1070
    77
 70
     3
1070
   272
 70
     4
1070
    73
 70
     1
1070
   172
 70
     0
1070
    74
 70
     1
1070
   283
 70
     1
1070
   340
340
11
1070
   140
 40
0.18
1070
   284
 70
     0
1070
    78
 70
     0
1002
}
  0
XRECORD
  5
143
102
{ACAD_REACTORS
330
139
102
}
330
139
100
AcDbXrecord
  1
{07C99CA6-FFCF-44DC-9E3D-D2E2365992E6}
  0
XRECORD
  5
13C
102
{ACAD_REACTORS
330
139
102
}
330
139
100
AcDbXrecord
  1

  0
XRECORD
  5
141
102
{ACAD_REACTORS
330
139
102
}
330
139
100
AcDbXrecord
 90
        4
  0
XRECORD
  5
13E
102
{ACAD_REACTORS
330
139
102
}
330
139
100
AcDbXrecord
340
1A
  0
XRECORD
  5
140
102
{ACAD_REACTORS
330
139
102
}
330
139
100
AcDbXrecord
 90
    10781
  0
XRECORD
  5
13F
102
{ACAD_REACTORS
330
139
102
}
330
139
100
AcDbXrecord
340
19
  0
XRECORD
  5
145
102
{ACAD_REACTORS
330
139
102
}
330
139
100
AcDbXrecord
 40
0.0
  0
XRECORD
  5
148
102
{ACAD_REACTORS
330
139
102
}
330
139
100
AcDbXrecord
340
0
  0
XRECORD
  5
14E
102
{ACAD_REACTORS
330
139
102
}
330
139
100
AcDbXrecord
 10
0.0
 20
0.0
 30
0.0
  0
XRECORD
  5
14A
102
{ACAD_REACTORS
330
139
102
}
330
139
100
AcDbXrecord
 10
0.0
 20
0.0
 30
0.0
  0
XRECORD
  5
14D
102
{ACAD_REACTORS
330
139
102
}
330
139
100
AcDbXrecord
 10
0.0
 20
0.0
 30
0.0
  0
XRECORD
  5
14B
102
{ACAD_REACTORS
330
139
102
}
330
139
100
AcDbXrecord
 10
0.0
 20
0.0
 30
0.0
  0
XRECORD
  5
14C
102
{ACAD_REACTORS
330
139
102
}
330
139
100
AcDbXrecord
 10
0.0
 20
0.0
 30
0.0
  0
XRECORD
  5
149
102
{ACAD_REACTORS
330
139
102
}
330
139
100
AcDbXrecord
 10
0.0
 20
0.0
 30
0.0
  0
XRECORD
  5
146
102
{ACAD_REACTORS
330
139
102
}
330
139
100
AcDbXrecord
340
0
  0
XRECORD
  5
147
102
{ACAD_REACTORS
330
139
102
}
330
139
100
AcDbXrecord
 70
     0
  0
XRECORD
  5
13D
102
{ACAD_REACTORS
330
139
102
}
330
139
100
AcDbXrecord
  1

  0
XRECORD
  5
13A
102
{ACAD_REACTORS
330
139
102
}
330
139
100
AcDbXrecord
 90
        1
  0
XRECORD
  5
13B
102
{ACAD_REACTORS
330
139
102
}
330
139
100
AcDbXrecord
 90
       70
  0
XRECORD
  5
151
102
{ACAD_REACTORS
330
139
102
}
330
139
100
AcDbXrecord
340
0
  0
XRECORD
  5
157
102
{ACAD_REACTORS
330
139
102
}
330
139
100
AcDbXrecord
 10
0.0
 20
0.0
 30
0.0
  0
XRECORD
  5
153
102
{ACAD_REACTORS
330
139
102
}
330
139
100
AcDbXrecord
 10
0.0
 20
0.0
 30
0.0
  0
XRECORD
  5
156
102
{ACAD_REACTORS
330
139
102
}
330
139
100
AcDbXrecord
 10
0.0
 20
0.0
 30
0.0
  0
XRECORD
  5
154
102
{ACAD_REACTORS
330
139
102
}
330
139
100
AcDbXrecord
 10
0.0
 20
0.0
 30
0.0
  0
XRECORD
  5
155
102
{ACAD_REACTORS
330
139
102
}
330
139
100
AcDbXrecord
 10
0.0
 20
0.0
 30
0.0
  0
XRECORD
  5
152
102
{ACAD_REACTORS
330
139
102
}
330
139
100
AcDbXrecord
 10
0.0
 20
0.0
 30
0.0
  0
XRECORD
  5
14F
102
{ACAD_REACTORS
330
139
102
}
330
139
100
AcDbXrecord
340
0
  0
XRECORD
  5
150
102
{ACAD_REACTORS
330
139
102
}
330
139
100
AcDbXrecord
 70
     0
  0
XRECORD
  5
144
102
{ACAD_REACTORS
330
139
102
}
330
139
100
AcDbXrecord
  1
{FAEB1C32-E019-11D5-929B-00C0DF256EC4}
  0
ENDSEC
  0
EOF
